Latest Discussion about a Sheet, Song, Lyric or Tab

Plaisir D Amour Tab Music by Jean-paul Martini tabs. Sheets, songs, music and tabs. Simple!

Liked Disliked

Add your comments below. No sign up required.

"Plaisir D Amour Tab" By: Jean-paul Martini tabs

Chords in this tab

Plaisir d' Amour - Jean Paul Martini (1741 - 1816)
Transcribed by Rajmahendra R. Hegde (rajmahendra@gmail.com)

Hai Friends, here is a small music piece from Plaisir d' Amour by

1000
Jean Paul Martini (1741 - 1816). notes are melodies and basic in motion.

Thankyou, I hope you will enjoy this Music.

With Warm Regards,
Rajmahendra R. Hegde
02-Oct-2003 [Thu]

Contact me at rajmahendra@gmail.com

+------------------------------------------------------------------------+
|  Top      -  Note Type, LHF and RHF                                    |
|  1,2,3,4  -  Right Hand Fingers                                        |
|  (1. Index Finger,2. Middle Finger so on)                              |
|  ima      -  Right Hand Finger                                         |
|  (i- Index Finger, m - Middle Finger, a - Ring Finger)                 |
|                                                                        |
|  w  - Whole Note                                                       |
|  h  - Half Note                                                        |
|  q  - Quarter Note                                                     |
|  e  - Eighth Note                                                      |
|  h. - Dotted Half Note                                                 |
|  T  - Tie                                                              |
|                                                                        |
| Note:                                                                  |
| *) Notes Not having above letters are q (Quarter Notes)                |
| *) q(a) or h(3) used to differenciate Note type and LHF or RHF         |
+------------------------------------------------------------------------+

                            Plaisir d' Amour

                                          Jean Paul Martini (1741 - 1816)

TimeSignnagure : 3/4
KeySignature   : C (No Sharp,No Flat)

Andandino
                                                                   T
                                                         |--------------
                     h(1)              h.(4)             h.
             0       3   2             2    3            3
E||---------------|-----------------|-----------------|--0--------------|
B||---------------|--1--------------|--3--------------|-----------------|
G||----------0----|------------0----|------------0----|------------0----|
D||---------------|-------2---------|-------3---------|-------2---------|
A||---------------|--3--------------|--2--------------|--3--------------|
e||---------------|-----------------|-----------------|-----------------|

T                                                              T
--|                                                     |--------------
       h            h    h            0    4            h.
       h                 h            3    2
--0---------0----|--1---------1----|--0---------0----|-----------------|
-----------------|-------0---------|-------3---------|--3--------------|
-------0---------|-------0---------|-----------------|-----------------|
-------2---------|--0--------------|-----------------|-----------------|
--3--------------|-----------------|--3----2----3----|--2---------0----|
-----------------|-----------------|-----------------|-------3---------|

T
--|
  h(4)      0       h.(3)             h.                     4
  2         2       2   4                                    0
-----------------|-----------------|-----------------|------------0----|
--3--------------|-----------------|--0--------------|--1----3---------|
------------0----|--2--------------|-----------------|--0--------------|
-----------------|------------0----|------------0----|--2----0----2----|
--2----0---------|-------3---------|-------2---------|-----------------|
------------3/---|--2--------------|--1--------------|--0--------------|

  q
  h    4            h.                h.(4)             h.(1)
  h                 q                                   q(3)
------------1----|--0--------------|-----------------|-----------------|
-------3---------|-----------------|--3--------------|--1--------------|
--2--------------|------------0---
fcf
-|------------0----|------------0----|
--3---------0----|-------2---------|-------0---------|-------2---------|
-----------------|-----------------|-----------------|--3--------------|
--1--------------|--3--------------|--3--------------|-----------------|


  h
--------||
--------||
-------*||
-------*||
--3-----||
--------||

Other sheets, tabs, and music related to "Plaisir D Amour Tab Jean-paul Martini tabs"

Comments

Add a Comment

  • (not saved or published)