More Info for Sleeping With Sirens tabs

Latest Discussion about a Sheet, Song, Lyric or Tab

If Im James Dean Youre Audrey Hepburn Bass Tab tab by Sleeping With Sirens tabs. Find sheets and tabs here. No Frills!

Liked Disliked

Add your comments below. No sign up required.

"If Im James Dean Youre Audrey Hepburn Bass Tab" By: Sleeping With Sirens tabs

Chords in this tab

-------------------------------------------------------------------------------
			     If I'm James Dean You're Audrey Hepburn - Sleeping With Sirens 
-------------------------------------------------------------------------------

Tabbed By : This Kid
e-mail: michael_grosse11@hotmail.com

Tuning: Drop C#

Great song by a great band who deserve more recognition. Too bad drop C# is annoying. 
Anyway all seems fine to me, let me know if I missed something.


Intro/Verse 1


F#|-----------------|-----------------|-----------------|-----------------|
C#|-----------------|-----------------|-----------------|-----------------|
G#|-----------------|-----------------|-----------------|-----------------|
C#|/7---7---7-7-----|-----------------|-7---7---7-7-----|-----------------|
    1 + 2 + 3 + 4 +   1 + 2 + 3 + 4 +   1 + 2 + 3 + 4 +   1 + 2 + 3 + 4 +
 
    Play 6th notes
F#|------------------|------------------|------------------|------------------|
C#|------------------|------------------|------------------|------------------|
G#|------------------|------------------|------------------|------------------|
C#|-3--3--3--3--3--3-|-3--3--3--3--3--3-|-7--7--7--7--7--7-|-5--5--5--5--5--5-|
    1 + 2 + 3 + 4 +    1 + 2 + 3 + 4 +    1 + 2 + 3 + 4 +    1 + 2 + 3 + 4 +


F#|-----------------|-----------------|-----------------|-----------------|
C#|-----------------|-----------------|-----------------|-----------------|
G#|-----------------|-----------------|-----------------|-----------------|
C#|-7---7---7-7-----|-----------------|-7---7---7-7-----|-----------------|
    1 + 2 + 3 + 4 +   1 + 2 + 3 + 4 +   1 + 2 + 3 + 4 +   1 + 2 + 3 + 4 +

F#|------------------|------------------|------------------|------------------|
C#|------------------|------------------|------------------|------------------|
G#|------------------|------------------|------------------|------------------|
C#|-3--3--3--3--3--3-|-3--3--3--3--3--3-|-7--7--7--7--7--7-|-5--5--5--5--5--5-|
    1 + 2 + 3 + 4 +    1 + 2 + 3 + 4 +    1 + 2 + 3 + 4 +    1 + 2 + 3 + 4 +

F#|-----------------|-----------------|
C#|-----------------|-----------------|
G#|-----------------|-----------------|
C#|-7---------------|-5-------3-------|
    1 + 2 + 3 + 4 +   1 + 2 + 3 + 4 +  


Second part of Verse 1


F#|-----------------|---5-4-----------|-----------------|---5-4-----------|
C#|-----------------|-7-----7-5-------|-----------------|-7-----7-5-------|
G#|-------------5-7-|-----------7-5-7-|-------------5-7-|-----------7-5-7-|
C#|-7---7---7-7-----|-----------------|-7---7---7-7-----|-----------------|
    1 + 2 + 3 + 4 +   1 + 2 + 3 + 4 +   1 + 2 + 3 + 4 +   1 + 2 + 3 + 4 +

F#|-----------------|-----------------|-----------------|-----------------|
C#|-----------------|-----------------|-----------------|-----------------|
G#|-------------5h7-|-----------------|-----------------|-----------------|
C#|-3---3---3-3-----|-----2-----------|-5---5---5-5-----|-6---6---6-6-----|
    1 + 2 + 3 + 4 +   1 + 2 + 3 + 4 +   1 + 2 + 3 + 4 +   1 + 2 + 3 + 4 +

F#|-----------------|---5-4-----------|-----------------|---5-4-----------|
C#|-----------------|-7-----7-5-------|-----------------|-7-----7-5-------|
G#|-------------5-7-|-----------7-5-7-|-------------5-7-|-----------7-5-7-|
C#|-7---7---7-7-----|-----------------|-7---7---7-7-----|-----------------|
    1 + 2 + 3 + 4 +   1 + 2 + 3 + 4 +   1 + 2 + 3 + 4 +   1 + 2 + 3 + 4 +

F#|-----------------|-----------------|-----------------|-----------------|
C#|-----------------|-----------------|-----------------|-----------------|
G#|-------------5h7-|-----------------|-----------------|-----------------|
C#|-3---3---3-3-----|-----2-----------|-5---5---5-5-----|-6---6---6-6-----|
    1 + 2 + 3 + 4 +   1 + 2 + 3 + 4 +   1 + 2 + 3 + 4 +   1 + 2 + 3 + 4 +

F#|-----------------|-----------------|
C#|-----------------|-----------------|
G#|-----------------|-----------------|
C#|-7---------------|-----------------|
    1 + 2 + 3 + 4 +   1 + 2 + 3 + 4 +   


Chorus

F#|-----------------|-----------------|-----------------|-----------------|
C#|-----------------|-----------------|-----------------|-----------------|
G#|-----------------|-----------------|-0-0-0-0-0-0-0-0-|-0-0-0-0-0-0-0-0-|
C#|-3-3-3-3-3-3-3-3-|-3-3-3-3-3-3-3-3-|-----------------|-----------------|
    1 + 2 + 3 + 4 +   1 + 2 + 3 + 4 +   1 + 2 + 3 + 4 +   1 + 2 + 3 + 4 +

F#|-----------------|-----------------|-----------------|-----------------|
C#|-----------------|-----------------|-----------------|-----------------|
G#|-3-3-3-3-3-3-3-3-|-3-3-3-3-3-3-3-3-|-2-2-2-2-2-2-2-2-|-2-2-2-2-2-2-2-2-|
C#|-----------------|-----------------|-----------------|-----------------|
    1 + 2 + 3 + 4 +   1 + 2 + 3 + 4 +   1 + 2 + 3 + 4 +   1 + 2 + 3 + 4 +

F#|-----------------|-----------------|-----------------|-----------------|
C#|-----------------|-----------------|-----------------|-----------------|
G#|-----------------|-----------------|-0-0-0-0-0-0-0-0-|-0-0-0-0-0-0-0-0-|
C#|-3-3-3-3-3-3-3-3-|-3-3-3-3-3-3-3-3-|-----------------|-----------------|
    1 + 2 + 3 + 4 +   1 + 2 + 3 + 4 +   1 + 2 + 3 + 4 +   1 + 2 + 3 + 4 +

F#|-----------------|-----------------|-----------------|-----------------|
C#|-----------------|-----------------|-----------------|-----------------|
G#|-3-3-3-3-3-3-3-3-|-3-3-3-3-3-3-3-3-|-2-2-2-2-2-2-2-2-|-2-2-2-2-2-2-2-2-|
C#|-----------------|-----------------|-----------------|-----------------|
    1 + 2 + 3 + 4 +   1 + 2 + 3 + 4 +   1 + 2 + 3 + 4 +   1 + 2 + 3 + 4 +

Verse 2

Pause for 2 bars

F#|-----------------|-----------------|-----------------|-----------------|
C#|-----------------|-----------------|-----------------|-----------------|
G#|-----------------|-----------------|-----------------|-----------------|
C#|-7-7-------------|-7---7-7---------|-3-3-3-3-3-3-3-3-|-0-0-0-0-0-0-0-0-|
    1 + 2 + 3 + 4 +   1 + 2 + 3 + 4 +   1 + 2 + 3 + 4 +   1 + 2 + 3 + 4 +

F#|-----------------|-----------------|-----------------|-----------------|
C#|-----------------|-----------------|-----------------|-----------------|
G#|-----------------|-----------------|-----------------|-----------------|
C#|-7-7-------------|-7---7-7---------|-7-7-------------|-7---7-7---------|
    1 + 2 + 3 + 4 +   1 + 2 + 3 + 4 +   1 + 2 + 3 + 4 +   1 + 2 + 3 + 4 +


F#|-----------------|-----------------|-----------------|-----------------|
C#|-----------------|-----------------|-----------------|-----------------|
G#|-----------------|-----------------|-----------------|-----------------|
C#|-3-3-3-3-3-3-3-3-|-0-0-0-0-0-0-0-0-|-7-7-------------|-7---7-7---------|
    1 + 2 + 3 + 4 +   1 + 2 + 3 + 4 +   1 + 2 + 3 + 4 +   1 + 2 + 3 + 4 +

F#|-----------------|-----------------|-----------------|-----------------|
C#|-----------------|-----------------|-----------------|-----------------|
G#|-----------------|-----------------|-----------------|-----------------|
C#|-7-7-------------|-7---7-7---------|-7-7-------------|-7---7-7---------|
    1 + 2 + 3 + 4 +   1 + 2 + 3 + 4 +   1 + 2 + 3 + 4 +   1 + 2 + 3 + 4 +


F#|-----------------|-----------------|
C#|-----------------|-----------------|
G#|-----------------|-----------------|
C#|-3-3-3-3-3-3-3-3-|-0-0-0-0---------|
    1 + 2 + 3 + 4 +   1 + 2 + 3 + 4 +   


Chorus

F#|-----------------|-----------------|-----------------|-----------------|
C#|-----------------|-----------------|-----------------|-----------------|
G#|-----------------|-----------------|-0-0-0-0-0-0-0-0-|-0-0-0-0-0-0-0-0-|
C#|-3-3-3-3-3-3-3-3-|-3-3-3-3-3-3-3-3-|-----------------|-----------------|
    1 + 2 + 3 + 4 +   1 + 2 + 3 + 4 +   1 + 2 + 3 + 4 +   1 + 2 + 3 + 4 +

F#|-----------------|-----------------|-----------------|-----------------|
C#|-----------------|-----------------|-----------------|-----------------|
G#|-3-3-3-3-3-3-3-3-|-3-3-3-3-3-3-3-3-|-2-2-2-2-2-2-2-2-|-2-2-2-2-2-2-2-2-|
C#|-----------------|-----------------|-----------------|-----------------|
    1 + 2 + 3 + 4 +   1 + 2 + 3 + 4 +   1 + 2 + 3 + 4 +   1 + 2 + 3 + 4 +

F#|-----------------|-----------------|-----------------|-----------------|
C#|-----------------|-----------------|-----------------|-----------------|
G#|-----------------|-----------------|-0-0-0-0-0-0-0-0-|-0-0-0-0-0-0-0-0-|
C#|-3-3-3-3-3-3-3-3-|-3-3-3-3-3-3-3-3-|-----------------|-----------------|
    1 + 2 + 3 + 4 +   1 + 2 + 3 + 4 +   1 + 2 + 3 + 4 +   1 + 2 + 3 + 4 +

F#|-----------------|-----------------|-----------------|-----------------|
C#|-----------------|-----------------|-----------------|-----------------|
G#|-3-3-3-3-3-3-3-3-|-3-3-3-3-3-3-3-3-|-2-2-2-2-2-2-2-2-|-2-2-2-2-2-2-2-2-|
C#|-----------------|-----------------|-----------------|-----------------|
    1 + 2 + 3 + 4 +   1 + 2 + 3 + 4 +   1 + 2 + 3 + 4 +   1 + 2 + 3 + 4 +


Bridge

Pause for 4 bars

F#|-----------------|-----------------|-----------------|-----------------|
C#|-----------------|-----------------|-----------------|-----------------|
G#|-----------------|-----------------|-----------------|-----------------| x 4
C#|-3-3-3-3-3-3-3-3-|-3-3-3-3-3-3-3-3-|-5-5-5-5-5-5-5-5-|-5-5-5-5-5-5-5-5-|
    1 + 2 + 3 + 4 +   1 + 2 + 3 + 4 +   1 + 2 + 3 + 4 +   1 + 2 + 3 + 4 +


Chorus

F#|-----------------|-----------------|-----------------|-----------------|
C#|-----------------|-----------------|-----------------|-----------------|
G#|-----------------|-----------------|-----------------|-----------------|
C#|-3-3-3-3-3-3-3-3-|-3-3-3-3-3-3-3-3-|-5-5-5-5-5-5-5-5-|-5-5-5-5-5-5-5-5-|
    1 + 2 + 3 + 4 +   1 + 2 + 3 + 4 +   1 + 2 + 3 + 4 +   1 + 2 + 3 + 4 +

F#|-----------------|-----------------|-----------------|-----------------|
C#|-----------------|-----------------|-----------------|-----------------|
G#|-0-0-0-0-0-0-0-0-|-0-0-0-0-0-0-0-0-|-3-3-3-3-3-3-3-3-|-3-3-3-3-3-3-3-3-| x 4
C#|-----------------|-----------------|-----------------|-----------------|
    1 + 2 + 3 + 4 +   1 + 2 + 3 + 4 +   1 + 2 + 3 + 4 +   1 + 2 + 3 + 4 +


| /  slide up
| \  slide down
| h  hammer-on
| p  pull-off
| ~  vibrato
| +  harmonic
| x  Mute note
===============================================================================

Other sheets, tabs, and music related to "If Im James Dean Youre Audrey Hepburn Bass Tab Sleeping With Sirens tabs"

Comments

Add a Comment

  • (not saved or published)