More Info for Type O Negative tabs

Genres

  • Gothic metal
  • Doom metal

Origin

  • Brooklyn, New York, U.S.

Years Active

  • 1989–2010

Latest Discussion about a Sheet, Song, Lyric or Tab

September Sun Tab. Tab by Type O Negative tabs. Find sheets and tabs here. Easiest to Read and Use!

Liked Disliked

Add your comments below. No sign up required.

"September Sun Tab" By: Type O Negative tabs

Chords in this tab

-------------------------------------------------------------------------------
			     SEPTEMBER SUN - Type O Negative
-------------------------------------------------------------------------------
Tabbed by: Raza Mahmood
Email: stereocracy@sbcglobal.net

Tuning: B,E,A,D,F#,b

I. Intro (Piano and Vocals only)

II.  Verse:
     "Yet in the dark..." 
b ||--------------------------------------------------|
F#||--------------------------------------------------|
D ||--------------------------------------------------|
A ||-----9------------------7-------------------7^9^7-|
E ||-X\--9---9--9---9--9-\--7---7--7---7--7-7^9-------|
B ||-X\--7---7--7---7--7-\--5---5--5---5--5-----------|

 "Night's living..."
|-----------------------------------------------||
|-----------------------------------------------||
|-----------------------------------------------||
|-9-----------------------7-/9------------7^9^7-||
|-9---9--9---9--9------5--------7-----7^9-------||
|-7---7--7---7--7-\-3-------------5-------------||

"10 years amassed..."
||----------------------------------------------|
||----------------------------------------------|
||----------------------------------------------|
||-9------------------7-------------------7^9^7-|
||-9---9--9---9--9-\--7---7--7---7--7-7^9-------|
||-7---7--7---7--7-\--5---5--5---5--5-----------|

"Lost man in time..."
|--------------------------------------||
|--------------------------------------||
|--------------------------------------||
|-5----------------/7------------------||
|-5---5--5---5--5--/7--7--7--7--7----7-||
|-3---3--3---3--3--/5--5--5--5--5----5-||

III. Chorus A (no vocals)

||------------------------------------------------------------||
||------------------------------------------------------------||
||------------------------------------------------------------||
||------6--6------------6--6----------------6--6--------------||
||-----------7-7-7--0--------7---7---------------7-7-7--0--X\-||
||-0---------------------------------0---------------------X\-||

||------------------------------------------------------------||
||------------------------------------------------------------||
||------------------------------------------------------------||
||------6--6------------6--6-----6^7^6------6--6--------------||
||-----------7-7-7--0--------7-7-----------------7-7-7--0--X\-||
||-0------------------------------------0------------------X\-||

REPEAT INTRO & VERSE

IV. Chorus B (Lead-in to key change)

||----------------------------------------|
||----------------------------------------|
||----------------------------------------|
||-----/6-6--2--2/4-4------/6-6--2--2/4-4-|
||----------------------------------------|
||-2-------------------0------------------|
                                
                                  pm
|---------------------------------------||
|---------------------------------------||
|---------------------------------------||
|-----/6-6--2--2/4-4--7--7--9--9---X----||
|---------------------5--4--7--9---X-7--||
|-2----------------------------------5--||

"Leave her..."
"I said leave her           alone..."
||--------------------------------------------||
||--------------------------------------------||
||--------------------------------------------||
||----------------------------7--7--9--9--X---||
||----------------------------5--4--7--9--X-7-||
||------------------------------------------5-||


||----------------------------------------|
||--------
fcf
--------------------------------|
||----------------------------------------|
||-----/6-6--2--2/4-4------/6-6--2--2/4-4-|
||----------------------------------------|
||-2-------------------0------------------|
                                
                                  pm
|---------------------------------------||
|---------------------------------------||
|---------------------------------------||
|-----/6-6--2--2/4-4--7--7--9--9---X----||
|---------------------5--4--7--9---X-7--||
|-2----------------------------------5--||


"Leave her..."            "alone..."
||--------------|------------------------------||
||--------------|------------------------------||
||--------------|------------------------------||
||--------------|--------------7--7--9--9--X---||
||--------------|--------------5--4--7--9--X-7-||
||--------------|----------------------------5-||
|
|
|
|Guitar 2
| (slightly distorted)
||--------------|------------------------------||
||--------------|------------------------------||
||-11--11--11---|------------------------------||
||---11--11--11-|------------------------------||
||--------------|------------------------------||
||--------------|------------------------------||

IV.  Ending

  Slow!                                  Repeat (4 times)
                                       with trumpets/march/etc.
                                               pm
||--------------------------------------------------||
||--------------------------------------------------||
||--------------------------------------------------||
||-4--4--4--4--6--6--6--6--8--8--8--8--7-7-9-9------||
||-4--4--4--4--6--6--6--6--8--8--8--8--5-4-7-9--X-7-||
||-2--2--2--2--4--4--4--4--6--6--6--6-----------X-5-||

SOLO--Figure out on yer own!

Chord progression implied by distorted bass/keys...

"Me me me me  I know why..."
  Strum these at will
||--------------------------------------------------------||
||--------------------------------------------------------||
||-11-11-11-11--11-11-11-11--11-11-11-11--11-11-11-11-----||
||-11-11-11-11---9--9--9--9--11-11-11-11---9--9--9--9---6-||
||--9--9--9--9---7--7--7--7---9--9--9--9---7--7--7--7---4-||
||--------------------------------------------------------||


| /  slide up
| \  slide down
| h  hammer-on
| p  pull-off
| ~  vibrato
| +  harmonic
| x  Mute note
| X\ Pick scrape
===============================================================================

Other sheets, tabs, and music related to "September Sun Tab Type O Negative tabs"

Comments

Add a Comment

  • (not saved or published)