Song: Wasteland Bass

Band: 10 Years
Composed By: The Early Years

Rating: -0 +0 Views: 56



    

																				I hope this is right, it sounds close.


intro
G:|-----------||
D:|-0~-2~-4~--||
A:|-----------||
Db|-----------||



    

pre verse 1
G:|-----------------||
D:|-----------------||
A:|----2------------||
Db|-1~---3~--10-10--||

verse 1:
G:|----------------------------------------------------------------------------------------|
D:|-------------------------------------------------------------------------2-------2------|
A:|-----------------------------------------------------------------------2---2---2---2----|
Db|-555555555555-33-44-5555555555555555-1111111111111111-0000000000000000-------0-------0--|

pre chorus 1
G:|----------------||
D:|----------------||
A:|----2-----------||
Db|-1~---3~-10-10--||

chorus 1
G:|-------------------------------------------------------------------------||
D:|-------------------------------------------------------------------------||
A:|---------------------------------------------------2---------------------||
Db|-55555555555555555555555555555555-0-11111111111111---333333333333-10-10--||

G:|----------------------------------------------------------------------------------------|
D:|-------------------------------------------------------------------------2-------2------|
A:|-----------------------------------------------------------------------2---2---2---2----|
Db|-555555555555-33-44-5555555555555555-1111111111111111-0000000000000000-------0-------0--|

G:|----------------||
D:|----------------||
A:|----2-----------||
Db|-1~---3~-10-10--||

G:|-------------------------------------------------------------------------||
D:|-------------------------------------------------------------------------||
A:|---------------------------------------------------2---------------------||
Db|-55555555555555555555555555555555-0-11111111111111---333333333333-10-10--||


intrerlude
G:|--------------------------||
D:|--------------------------||
A:|--------------------------||
Db|-55-55-11111111-33333333--||

end on
G:|------||
D:|-4~---||
A:|------||
Db|------||

intro
G:|-----------||
D:|-0~-2~-4~--||
A:|-----------||
Db|-----------||

G:|----------------||
D:|----------------||
A:|----2-----------||
Db|-1~---3~-10-10--||

G:|-------------------------------------------------------------------------||
D:|-------------------------------------------------------------------------||
A:|---------------------------------------------------2---------------------||
Db|-55555555555555555555555555555555-0-11111111111111---333333333333-10-10--||


G:|--------------------------------------------------------------||
D:|--------------------------------------------------------------||
A:|------------------------------------------------2-------------||
Db|-555555555555555555555555555555555-111111111111---3333333333--||

end on
G:|-----||
D:|-----||
A:|-----||
Db|-55--||

View Albums that This Song Appears On...

  • The Autumn Effect

    Genre: Pop/Rock Label: Digital Song Duration on Album: 3:51 Album Duration: 57:16

    Release Date: August 16, 2005

    Moods: Brooding, Cerebral, Dramatic, Urgent, Detached, Tense/Anxious, Earnest, Searching, Angst-Ridden, Reflective, Somber, Volatile, Yearning, Bitter, Swaggering, Paranoid

    Styles: Alternative Metal, Heavy Metal, Post-Grunge

    Themes: Reflection, Regret

  • MTV2 Headbanger's Ball: The Revenge

    Genre: Pop/Rock Label: Roadrunner Records Song Duration on Album: 3:50 Album Duration: 02:34:20

    Release Date: April 11, 2006

    Moods: Malevolent, Manic, Menacing, Nihilistic, Ominous, Rollicking, Rousing, Rowdy

    Styles: Alternative Metal, Doom Metal, Hair Metal, Heavy Metal, Stoner Metal

    Themes: Guys Night Out, Hanging Out, Late Night

  • Family Values Tour 2006

    Genre: Pop/Rock Label: Firm Music Song Duration on Album: 5:08 Album Duration: 01:10:47

    Release Date: December 26, 2006

    Moods: Angst-Ridden, Aggressive, Confrontational, Malevolent, Menacing, Nihilistic, Angry, Bleak, Boisterous, Brash, Cathartic, Energetic, Fiery, Intense, Raucous, Rebellious, Rowdy, Visceral, Volatile, Reckless, Rousing, Rambunctious

    Styles: Alternative Metal, Rap-Rock, Alternative Pop/Rock, Alternative/Indie Rock, Funk Metal, Heavy Metal, Industrial Metal, Rap-Metal

    Themes: Drinking, Guys Night Out, Partying, TGIF, Cool & Cocky

Close panel

Help Rate This Tab by Voting Up or Down

Vote Up Vote Down
Rating: -0 +0

Other Songs Like This

x

Copyright © 2017