Song: Sleeping With Lions

Band: 69 Eyes

Rating: -1 +1 Views: 310

So i tried make some tab with ear. I tuned my guitar to Drop C i think. I tuned it with 
Pro to Guitar eB and lowered every string down by 2 except string 6, the lowest down by 
 I didnt get all parts but ill show you what i got.

Tune is now D5 A4 F4 C4 G3 C3



    


so intro is
1st guitar
D-------------------------|-----------------|
A---6---------------------|---6-----------8-|
F-8--8-10-6----6---------6|-8---8-10-6---8--| 4x
C-----------6-8--8-10-6-8-|------------66---|
G-------------------------|-----------------|
C-------------------------|-----------------|

When basses and drums comes in 2nd guitar plays



    

D------------|------------|
A------------|------------|
F------------|------------|
C-8--6--3--1-|-8--6---1---|
G-8--6--3--1-|-8--6---1---| 2x
C-8--6--3--1-|-8--6---1---|


1st guitar and second plays

D-------------|-------------|
A-------------|-------------|
F-------------|-------------|
C-11-10--13-11|-11-10--11-13| 4x
G-------------|-------------|
C-------------|-------------|

Then

D---------------------|
A---------------------|
F--------------------8|
C-11-10--15-13-11-----|
G-------------------8-|
C------------------8--|

and then Chorus

D------------------------------|
A------------------------------|
F------------------------------|
C-8-8--887-77--3-3-33-4-44--66-|
G-8-8--887-77--3-3-33-4-44--66-|
C-8-8--887-77--3-3-33-4-44--66-|

Bass comes in Intro as same as 2nd guitar but only played on string C3


Hope you will understand and like it!

Close panel

Help Rate This Tab by Voting Up or Down

Vote Up Vote Down
Rating: -1 +1

Other Songs Like This

x

Copyright © 2019