Song: All I Want

Band: A Day To Remember
Composed By: A Day to Remember, Jeremy McKinnon, Kevin Skaff

Rating: -0 +0 Views: 400



    

																				All I Want 			Tab By: Jacob Weiss
A Day To Remember
Drop C

Intro
E---------------------------------------------------------------------------|
B---------------------------------------------------------------------------|
G-12-12-12-12-12-12-12\7--9-9-9-9-9-9-9-9----5-5-5-5-5-5-5-5--7-7-7-7-7-7-7-|
D-x--x--x--x--x--x--x-\x--x-x-x-x-x-x-x-x----x-x-x-x-x-x-x-x--x-x-x-x-x-x-x-|
A-10-10-10-10-10-10-10\5--7-7-7-7-7-7-7-7----3-3-3-3-3-3-3-3--5-5-5-5-5-5-5-|
E---------------------------------------------------------------------------|

Guitar2 Plays this lil riff thing
E-------------------------------------------------|
B---13p12------------13p12-----------10h12p10-----|
G--------12-14p12---------12-14p12-----------12---|
D----------------14---------------14--------------|
A-------------------------------------------------|
E-------------------------------------------------|



    

0:22	Out Loud, I like to Keep Things Honest

View Albums that This Song Appears On...

  • All I Want

    Label: Victory Records

    Release Date: 2010

    Styles: Alternative/Indie Rock, Post-Hardcore, Emo, Heavy Metal

Close panel

Help Rate This Tab by Voting Up or Down

Vote Up Vote Down
Rating: -0 +0

Other Songs Like This

x

Copyright © 2017