Song: A

Band: A

Rating: -0 +0 Views: 156



    

																				Hey guys! So, I did this one by ear. I'm positive that the intro's right, I've played it
with the real version, and it's bang on. As for the chords - I got as close as I could
Couldn't figure out the rest. If anyone has any suggestions to make it more accurate, 
me a shout.

e|-----------------------------------------|
B|-----0-----------------------------------|
G|-------1-----2-------1--------2----------|
D|---2-------4---4---2---2----4------------|   x 2
A|-----------------------------------------|
E|--0------0-------0-------0---------------|

       B                Chord X               E



    

e|--2---------0---------0------------------|
B|--4---------4---------0------------------|
G|--4---------4---------1------------------|
D|--4---------4---------2------------------|
A|--2---------0---------2------------------|
E|--2---------x---------0------------------|

B       X             E                   B
Hey      we're gonna be around
B       X             E                   B
Hey      we're gonna work it out
Db  A     Db             A          E

Hey             there's nothing to fight about
B             X            E                 B
Today          we're gonna be about

View Albums that This Song Appears On...

  • Pa Ke Se Ponha Happy

    Label: Polo el Rapero Catolico Song Duration on Album: 4:07

Close panel

Help Rate This Tab by Voting Up or Down

Vote Up Vote Down
Rating: -0 +0

Other Songs Like This

x

Copyright © 2017