Song: Bunga Padang Pasir

Band: Acab

Rating: -1 +1 Views: 90



    

																				e|-----------------|-88-7-5-7/8------|-88--77-55-44----|-----------------|
B|---10-8---8------|------------6----|-----------------|-----------------|
G|--------9---10---|-----------------|-----------------|-------7-9/10-7-9|
D|-----------------|-----------------|-----------------|-7-9-10----------|
A|-----------------|-----------------|-----------------|-----------------|
E|-----------------|-----------------|-----------------|-----------------|

e|--5-77/8---------|-8-5h76-2h43-----|-----------------|-----87h8-5------|
B|-----------------|-----------------|-------7-9/10-7-9|-----------------|
G|-----------------|-----------------|-7-9-10----------|-----------------|
D|-----------------|-----------------|-----------------|-----------------|
A|-----------------|-----------------|-----------------|-----------------|
E|-----------------|-----------------|-----------------|-----------------|




Close panel

Help Rate This Tab by Voting Up or Down

Vote Up Vote Down
Rating: -1 +1

Other Songs Like This

x

Copyright © 2019