Song: Were Coming Back

Band: Acab

Rating: -0 +0 Views: 120



    

																				Intro

e||---------------------------------------------------------------||
G||---------------------------------------------------------------||
B||---------------------------------------------------------------||
D||----------------4--55555555555-4--5--77777777777---------------||
A||-5555555555555--2--33333333333-2--3--55555555555--555555555555-||
E||-3333333333333------------------------------------333333333333-||
      
The intro is the same as the verse
So i'll jump to the chorus



    

"Its time to turn the clock back....

e||---------------------------------------------------------------||
G||---------------------------------------------------------------||
B||---------------------------------------------------------------||
D||--5-555555--7777777-----------4444444-5555555-7777777-99999999-||
A||--3-333333--5555555-5-5--4-4--2222222-3333333-5555555-77777777-||
E||--------------------3-3--2-2-----------------------------------||

tat's the first part of the chorus
tis the second one


e||---------------------------------------------------------------||
G||---------------------------------------------------------------||
B||---------------------------------------------------------------||
D||--5-555555--7777777-----------4444444-5555555-7777777----------||
A||--3-333333--5555555-5-5--4-4--2222222-3333333-5555555-55555555-||
E||--------------------3-3--2-2--------------------------33333333-||

Play both parts in the chorus

The face melting solo

e||--------------------------------------------------------------------||
G||--------------------------------------------------------------------||
B||--------------------------------------------------------------------||
D||--7--9--9--7--9-9---7---9--5--7---10--10--9--10-10-9--10--9--7--5---||
A||--------------------------------------------------------------------||
E||--------------------------------------------------------------------||

e||-------------------------------------||
G||-------------------------------------||
B||-------------------------------------||
D||-7--7--5--7---9--12--9--12---9---5---||
A||-------------------------------------||
E||-------------------------------------||

Close panel

Help Rate This Tab by Voting Up or Down

Vote Up Vote Down
Rating: -0 +0

Other Songs Like This

x

Copyright © 2017