Song: Missing Frame

Band: Afi
Composed By: AFI

Rating: -1 +1 Views: 132

Great album, Decemberunderground.
Great song.

usualy AFI uses Eb tuning but this song can be played in standard. That is how I tabed it.



    

Intro
|-----------------------------------------------------------------|
|-----------------------------------------------------------------|
|-----------------------------------------------------------------|
|---------8-8---8-6-6---6-8-8-8-8---------8-8---8-6-6---6---------|
|---------------------------------------------------------8-8-8-8-|
|-6-6---6-------------------------6-6---6-------------------------|x2

|-----------------------------------------------------------------|
|-----------------------------------------------------------------|
|-----------------------------------------------------------------|
|---------8-8---8-6-6---6-8-8-8-8---------8-8---8-6-6---6-8p6h8p6-|
|-----------------------------------------------------------------|
|-6-6---6-------------------------6-6---6-------------------------|

verse
|-------------------------------------------------|
|-------------------------------------------------|
|-------------------------------------------------|
|-11-11-11-11-11-11-11-11-10-10-10-10-10-10-10-10-|
|-------------------------------------------------|
|-------------------------------------------------|x2
pm.  .  .  .  .  .  .  .  .  .  .  .  .  .  .  .



    

|-------------------------------------------------------------------|
|-------------------------------------------------------------------|
|-------------------------------------------------------------------|
|-8-8-8-8-8-8-8-8-8-10-10-10-10-10-10-10-10-11-11-11-11-11-11-11-11-|
|-------------------------------------------------------------------|
|-------------------------------------------------------------------|
pm. . . . . . . . . .  .  .  .  .  .  .  .  .  .  .  .

|-------------------------|
|-------------------------|
|-------------------------|
|-10-10-10-10-10-10-10-10-|
|-------------------------|
|-------------------------|

prechorus thing
|-------------------------------------------------|
|-------------------------------------------------|
|-------------------------------------------------|
|-11-11-11-11-11-11-11-11-11-11-11-11-11-11-11-11-|
|-------------------------------------------------|
|-------------------------------------------------|

|----------------------------------|
|----------------------------------|
|----------------------------------|
|-10-10-10-10-10-10-10-10----------|
|----------------------------------|
|--------------------------5-5-5-6-|

verse
|-------------------------------------------------------------------|
|-------------------------------------------------------------------|
|-------------------------------------------------------------------|
|-8-8-8-8-8-8-8-8-8-10-10-10-10-10-10-10-10-11-11-11-11-11-11-11-11-|
|-------------------------------------------------------------------|
|-------------------------------------------------------------------|
pm. . . . . . . . . .  .  .  .  .  .  .  .  .  .  .  .

|-------------------------|
|-------------------------|
|-------------------------|
|-10-10-10-10-10-10-10-10-|
|-------------------------|
|-------------------------|

pre chorus
|-------------------------------------------------|
|-------------------------------------------------|
|-------------------------------------------------|
|-11-11-11-11-11-11-11-11-11-11-11-11-11-11-11-11-|
|-------------------------------------------------|
|-------------------------------------------------|

|-------------------------|
|-------------------------|
|-------------------------|
|-10-10-10-10-10-10-10-10-|
|-------------------------|
|-------------------------|

Chorus
|-----------------------------------------------------------------|
|-----------------------------------------------------------------|
|-6-6-6-6-6-6-6-6-6-6-6-6-6-6-6-6---------------------------------|
|-6-6-6-6-6-6-6-6-6-6-6-6-6-6-6-6-8-8-8-8-8-8-8-8-8-8-8-8-8-8-8-8-|
|-4-4-4-4-4-4-4-4-4-4-4-4-4-4-4-4-8-8-8-8-8-8-8-8-8-8-8-8-8-8-8-8-|
|---------------------------------6-6-6-6-6-6-6-6-6-6-6-6-6-6-6-6-|

|-------------------------------------------------------------------------|
|-------------------------------------------------------------------------|
|-------------------------------------------------11-11-11-11-10-10-10-10-|
|-6-6-6-6-6-6-6-6-6-6-6-6-6-6-6-6-4-4-4-4-4-4-4-4-x--x--x--x--x--x--x--x--|
|-6-6-6-6-6-6-6-6-6-6-6-6-6-6-6-6-4-4-4-4-4-4-4-4-9--9--9--9--8--8--8--8--|
|-4-4-4-4-4-4-4-4-4-4-4-4-4-4-4-4-2-2-2-2-2-2-2-2-------------------------|

Post chorus
|---------------------------------|
|---------------------------------|
|---------------------------------|
|---------8-8---8-6-6---6-8-8-8-8-|
|---------------------------------|
|-6-6---6-------------------------|

|-----------------------------------------------------------------|
|-----------------------------------------------------------------|
|-----------------------------------------------------------------|
|---------8-8---8-6-6---6-8-8-8-8---------8-8---8-6-6---6---------|
|---------------------------------------------------------8-8-8-8-|
|-6-6---6-------------------------6-6---6-------------------------|

|-----------------------------------------------------------------|
|-----------------------------------------------------------------|
|-----------------------------------------------------------------|
|---------8-8---8-6-6---6-8-8-8-8---------8-8---8-6-6---6-8p6h8p6-|
|-----------------------------------------------------------------|
|-6-6---6-------------------------6-6---6-------------------------|

Verse
|-------------------------------------------------|
|-------------------------------------------------|
|-------------------------------------------------|
|-11-11-11-11-11-11-11-11-10-10-10-10-10-10-10-10-|
|-------------------------------------------------|
|-------------------------------------------------|x2
pm.  .  .  .  .  .  .  .  .  .  .  .  .  .  .  .

|-------------------------------------------------------------------|
|-------------------------------------------------------------------|
|-------------------------------------------------------------------|
|-8-8-8-8-8-8-8-8-8-10-10-10-10-10-10-10-10-11-11-11-11-11-11-11-11-|
|-------------------------------------------------------------------|
|-------------------------------------------------------------------|
pm. . . . . . . . . .  .  .  .  .  .  .  .  .  .  .  .

|-------------------------|
|-------------------------|
|-------------------------|
|-10-10-10-10-10-10-10-10-|
|-------------------------|
|-------------------------|

pre chorus
|-------------------------------------------------|
|-------------------------------------------------|
|-------------------------------------------------|
|-11-11-11-11-11-11-11-11-11-11-11-11-11-11-11-11-|
|-------------------------------------------------|
|-------------------------------------------------|

|-------------------------|
|-------------------------|
|-------------------------|
|-10-10-10-10-10-10-10-10-|
|-------------------------|
|-------------------------|

Chorus
|-----------------------------------------------------------------|
|-----------------------------------------------------------------|
|-6-6-6-6-6-6-6-6-6-6-6-6-6-6-6-6---------------------------------|
|-6-6-6-6-6-6-6-6-6-6-6-6-6-6-6-6-8-8-8-8-8-8-8-8-8-8-8-8-8-8-8-8-|
|-4-4-4-4-4-4-4-4-4-4-4-4-4-4-4-4-8-8-8-8-8-8-8-8-8-8-8-8-8-8-8-8-|
|---------------------------------6-6-6-6-6-6-6-6-6-6-6-6-6-6-6-6-|

|-------------------------------------------------------------------------|
|-------------------------------------------------------------------------|
|-------------------------------------------------11-11-11-11-10-10-10-10-|
|-6-6-6-6-6-6-6-6-6-6-6-6-6-6-6-6-4-4-4-4-4-4-4-4-x--x--x--x--x--x--x--x--|
|-6-6-6-6-6-6-6-6-6-6-6-6-6-6-6-6-4-4-4-4-4-4-4-4-9--9--9--9--8--8--8--8--|
|-4-4-4-4-4-4-4-4-4-4-4-4-4-4-4-4-2-2-2-2-2-2-2-2-------------------------|

Bridge
|-------------------------------------------------|
|-------------------------------------------------|
|-------------------------------------------------|
|-11-11-11-11-10-11-11-11-11-11-11-11-10-11-10-11-|
|-------------------------------------------------|
|-------------------------------------------------|

|----------------------------------------------|
|----------------------------------------------|
|----------------------------------------------|
|-10-10-10-10-8-10-10-10-10-10-10-10-8-10-8-10-|
|----------------------------------------------|
|----------------------------------------------|
repeat bridge 4 times

then...
|-----------------------------------|
|-----------------------------------|
|-----------------------------------|
|-10-11-10~--11-13-11~--13-15-13~---|
|-----------------------------------|
|-----------------------------------|

Chorus
|-----------------------------------------------------------------|
|-----------------------------------------------------------------|
|-6-6-6-6-6-6-6-6-6-6-6-6-6-6-6-6---------------------------------|
|-6-6-6-6-6-6-6-6-6-6-6-6-6-6-6-6-8-8-8-8-8-8-8-8-8-8-8-8-8-8-8-8-|
|-4-4-4-4-4-4-4-4-4-4-4-4-4-4-4-4-8-8-8-8-8-8-8-8-8-8-8-8-8-8-8-8-|
|---------------------------------6-6-6-6-6-6-6-6-6-6-6-6-6-6-6-6-|

|-------------------------------------------------------------------------|
|-------------------------------------------------------------------------|
|-------------------------------------------------11-11-11-11-10-10-10-10-|
|-6-6-6-6-6-6-6-6-6-6-6-6-6-6-6-6-4-4-4-4-4-4-4-4-x--x--x--x--x--x--x--x--|
|-6-6-6-6-6-6-6-6-6-6-6-6-6-6-6-6-4-4-4-4-4-4-4-4-9--9--9--9--8--8--8--8--|
|-4-4-4-4-4-4-4-4-4-4-4-4-4-4-4-4-2-2-2-2-2-2-2-2-------------------------|

|-----------------------------------------------------------------|
|-----------------------------------------------------------------|
|-6-6-6-6-6-6-6-6-6-6-6-6-6-6-6-6---------------------------------|
|-6-6-6-6-6-6-6-6-6-6-6-6-6-6-6-6-8-8-8-8-8-8-8-8-8-8-8-8-8-8-8-8-|
|-4-4-4-4-4-4-4-4-4-4-4-4-4-4-4-4-8-8-8-8-8-8-8-8-8-8-8-8-8-8-8-8-|
|---------------------------------6-6-6-6-6-6-6-6-6-6-6-6-6-6-6-6-|

|-------------------------------------------------------------------------|
|-------------------------------------------------------------------------|
|-------------------------------------------------11-11-11-11-10-10-10-10-|
|-6-6-6-6-6-6-6-6-6-6-6-6-6-6-6-6-4-4-4-4-4-4-4-4-x--x--x--x--x--x--x--x--|
|-6-6-6-6-6-6-6-6-6-6-6-6-6-6-6-6-4-4-4-4-4-4-4-4-9--9--9--9--8--8--8--8--|
|-4-4-4-4-4-4-4-4-4-4-4-4-4-4-4-4-2-2-2-2-2-2-2-2-------------------------|

end on
|---|
|---|
|---|
|-8-|
|-8-|
|-6-|

View Albums that This Song Appears On...

  • Decemberunderground

    Genre: Pop/Rock Label: Universal Distribution / Interscope Song Duration on Album: 4:40 Album Duration: 44:37

    Release Date: June 6, 2006

    Moods: Dramatic, Reflective, Rousing, Stylish, Bittersweet, Provocative, Passionate, Aggressive, Cathartic, Lively, Tense/Anxious, Exuberant, Swaggering, Wintry

    Styles: Alternative Pop/Rock, Alternative/Indie Rock, Punk Revival, Emo, Goth Rock

    Themes: Day Driving, Reflection, Winter

  • I Heard a Voice

    Label: Interscope

    Release Date: December 12, 2006

    Moods: Brash, Cathartic, Dramatic, Rousing, Angry, Brooding, Intense, Tense/Anxious, Volatile, Bleak

    Styles: Alternative/Indie Rock, Punk Revival

  • I Heard a Voice: Live from Long Beach Arena

    Genre: Pop/Rock Label: Interscope / Tiny Evil Song Duration on Album: 4:40 Album Duration: 01:10:04

    Release Date: November 13, 2007

    Moods: Cathartic, Dramatic, Intense, Passionate, Brooding, Fiery, Melancholy, Reflective, Theatrical, Boisterous, Energetic, Knotty, Sprawling, Aggressive, Brash, Rousing, Menacing, Manic

    Styles: Alternative Pop/Rock, Alternative/Indie Rock, Punk Revival

    Themes: Night Driving, Winter, Introspection

Close panel

Help Rate This Tab by Voting Up or Down

Vote Up Vote Down
Rating: -1 +1

Other Songs Like This

x

Copyright © 2018