Song: Lets Get High Tonight Bass

Band: Afroman
Composed By: Joseph "Afroman" Foreman

Rating: -0 +0 Views: 101



    

																				-------------------------------------------------------------------------------
Let's Get High Tonight - Afroman
-------------------------------------------------------------------------------

Tabbed By : Alex GB
e-mail: rraaauuulll (at) gmail.com

Tuning: standard E,A,D,G



    

Riff 1
G|--------------------------------------------------------------------------------||
D|--7--------------7-7----------7-6--------------------------------------7-------o||
A|-------9p7---7h9--------9p7--------7h9----7--------7h8-8s9--7------7h9---------o||
E|---------------------------------------------9---9-------------9-9--------------||

OR

G|--2--------------2-2----------2-1------------------------------------2----------||
D|------4p2---2h4---------4p2--------2h4----2--------2h3-3s4--2-----2h4----------o||
A|---------------------------------------------4---4------------4-4--------------o||
E|--------------------------------------------------------------------------------||

Variation:
G|--------------------------------------------------------------------------------||
D|--7--------------7-7h9p7------7-6------------------------------------7---------o||
A|-------9p7---7h9---------9p7-------7h9----7--------7h8-8s9--7-----7h9----------o||
E|--------------------------------------------9---9-------------9-9---------------||

| /  slide up
| \  slide down
| h  hammer-on
| p  pull-off
| ~  vibrato
| +  harmonic
| x  Mute note

Notes: First bass tab! I'm not sure about the 7h8 8s9 part, e-mail me if you find a 
sounding way.

PEACE

View Albums that This Song Appears On...

  • Afroholic..The Even Better Times

    Genre: Rap Label: Hungry Hustler Song Duration on Album: 4:31 Album Duration: 02:23:59

    Release Date: April 20, 2004

    Moods: Playful, Amiable/Good-Natured, Campy, Humorous

    Styles: Comedy Rap, West Coast Rap

Close panel

Help Rate This Tab by Voting Up or Down

Vote Up Vote Down
Rating: -0 +0

Other Songs Like This

x

Copyright © 2017