Song: Miami Bass

Band: Against Me

Rating: -1 +1 Views: 124

Intro part 1
G|--------------------------------------|
D|--------------------------------------|
A|--------------------------------------|
E|-----0~-----1~-----/----5~---5>---5b--|

Intro part 2 (starts singing)
G|-----------------------------------------------------------|
D|-----------------------------------------------------------|
A|---12~---10~---10-8------------12~---14-12~-1212-14-12~-/\-|
E|--------------------1~---0~--------------------------------|



    

G|----------------------------------------------|
D|----------------------------------------------|
A|12-14-15-14-10~---10-12-10-12-----------------|
E|------------------------------1~---/\-0-0-0-0-|

Verse part 1  x1
G|----------------------------------------|
D|----------------------------------------|
A|--2-3-2---------------2-3-2-5-3-2-3-333-|
E|5-------55-3-5-555--5-------------------|

Verse part 2  x1
G|---------------------------------|
D|---------------------------------|
A|---5-3-5----5-3------------------|
E|3--------3------5--1-1-11-0-0-00-|



    

Verse part 1 x1

Verse part 3 x1
G|---------------------------------|
D|---------------------------------|
A|---5-3-5----5-3-----------7777---|
E|3--------3------5--1111----------|

Chorus  x1
G|-----------------------------------------|
D|-----------------------------------------|
A|-----------------------------------2-3-2-|
E|5--55-55-7--5-55-55-7--5-55-55-7-5-------|

G|---------------------------------|
D|---------------------------------|
A|---5-3-5----5-3------------------|
E|3--------3------5--1-1-11-0-0-00-|

G|-----------------------------------------|
D|-----------------------------------------|
A|-----------------------------------2-3-2-|
E|5--55-55-7--5-55-55-7--5-55-55-7-5-------|

G|---------------------------------|
D|---------------------------------|
A|---5-3-5----5-3-----------7777---|
E|3--------3------5--1111----------|

Bridge
G|--------------------------------------------|
D|--------------------------------------------|
A|7\------------------------------------3-2-3-|
E|---55-5-(hey)-55-5-(hey)-55-5-(hey)-5-------|

G|-----------------------------------------|
D|-----------------------------------------|
A|55-5-(hey)-55-5-(hey)-55-5-(hey)-5-5-4-5-|
E|-----------------------------------------|

G|---------------------------|
D|---------------------------|
A|77-7-(hey)-77-7-6-555-6-7b-|
E|---------------------------|

Verse x1 (all bits included in the verse)

Bass solo kinda bit
G|-------------------------------------------------------|
D|-------------------------------------------------------|
A|12>-\--12>-\--12>-\--121212-141414-151515-141414-10>-\-|
E|-------------------------------------------------------|

G|------------------------------------------|
D|------------------------------------------|
A|10>-\--8>-\--the fucking ship is sinking!-|
E|------------------------------------------|

Then only half the whole verse (sorry if its confusing!)

Chorus x1

End on E|-5-.

Great, great song. Found a tab of it on another site but
it was pretty crap so i decided to make a better
one lol. Close to 100% i think. Any comments or corrections
or if its too confusing are welcome. Please rate!

Close panel

Help Rate This Tab by Voting Up or Down

Vote Up Vote Down
Rating: -1 +1

Other Songs Like This

x

Copyright © 2018