Song: Miami

Band: Against Me

Rating: -1 +1 Views: 134

-------------------------------------------------------------------------------
			     MIAMI - Against Me!
-------------------------------------------------------------------------------
Tabbed by: Stephen D'Angelo
Email: mallow40@hotmail.com

Tuning: Standard



    

Most of the song is just the following chords
(with that sort of relative timing)

e|-0---------------3-------1---0---------------------------------------------|
B|-1---------------3-------1---0---------------------------------------------|
G|-2---------------0-------2---1---------------------------------------------|
D|-2---------------0-------3---2---------------------------------------------|
A|-0---------------2-------3---2---------------------------------------------|
E|-x---------------3-------1---0---------------------------------------------|
   Am              G       F   E


Intro:



    

e|-----------------------------------------------------------0---------------|
B|-------3-1-------------------------------------------------0---------------|
G|-----------------------------------------------------------2---------------|
D|-----------------------------------------------------------2---------------|
A|-----------------------------------------------------------0---------------|
E|----------------------0-0-0------------3-1-----------------x---------------|
   Am Am     E (slowly)       F (slowly)     Am (arpeggiate) (just play around
                                                              with the Am)

Verse, Chorus, etc.:

Am		G	F   E


Bridge:
e|---------------------------------------------------------------------------|
B|---------------------------------------------------------------------------|
G|-989------------7------767-9---9877789-------------------------------------|
D|-989-7------767-7------767-9---9877789-------------------------------------|
A|-767-7------767-5------545-7---7655567-------------------------------------|
E|-----5------545------------------------------------------------------------|
  ^              ^
  |              |
  | I know that there's something off about this part of the tab, if anyone
  | has a correction for it, it would be greatly appreciated.  I'll update
  | the tab (with credit of course) if someone e-mails me a correction.

| x  Mute note
===============================================================================

Close panel

Help Rate This Tab by Voting Up or Down

Vote Up Vote Down
Rating: -1 +1

Other Songs Like This

x

Copyright © 2018