Song: Paralyzed

Band: Against The Current

Rating: -0 +0 Views: 103

This is my first tab so im a little new. I eared this song so some parts might be a bit off,
if you have any questions or comments please let me know in the comment section bellow. Enjoy 

[Intro] 
e|------------------------------------|-------------------------------------------|
B|------------------------------------|-------------------------------------------|
G|------------------------------------|-------------------------------------------|
D|-------------------------------7-5--|-------------------------------------------|
A|----7-7--5-7--5-7-5--7-7-----5------|---7-7--5-7--5-7-5--7-7--------------------|
E|-------------------------5-5--------|-------------------------5-5-4-3-----------|X2



    

[Verse 1]
E                                  C                             G   G5/F#       
Have you had a million reasons why you wish you'd never seen the truth?
E                                  C                             G   G5/F# 
Have you looked into the mirror and the problem's staring back at you?


[Pre Chorus]
E                                            C                        
I can't control myself, don't know who I've been
G                                       G5/F# 
And who is this monster wearing my skin?
E                                        C 
A movie in black and white, when will it end?
G                                       G5/F#
Cause every time I scream no one hears me



    


[Chorus]
E                                      C
It feels like I'm paralyzed, and I can't
G                                   D
Escape from the prison I'm living in
E                                      C
I'm naming the voices in my head
G                                   D
They keep on telling me to give in
                 A
But it's making me stronger
                 B
Fight a little longer
                 C            D
I'm gonna bring me back to life

And I won't be paralyzed

e|---------------------------|
B|---------------------------|
G|---------------------------|
D|---------------------------|
A|----7-7--5-7--5-7-5--7-----|
E|---------------------------|


[Verse 2]
E                                  C                                    G   G5/F#       
Have you searched for something deeper out of fear that life's a lonely road?
E                                  C                                    G   G5/F#       
Have you roamed the darkest corners of the earth until you're just a ghost?


[Pre-Chorus]

[Chorus]

[Bridge]
C
I'm not afraid, I can face my demons
E                        G
Even if they tear me down
C
If I fall, let me fall, it might take time
D        E        G           A
But I'll find my own way out


It feels like I'm paralyzed, and I can't

Escape from the prison I'm living in


[Chorus 3]

E          C          G          D
It feels like I'm paralyzed X4
                 A
But it's making me stronger
                 B
Fight a little longer
                 C            D
I'm gonna bring me back to life

And I won't be paralyzed

[Outro]
e|---------------------------|
B|---------------------------|
G|---------------------------|
D|----------------5----------|
A|----7-7--5-7---------------|
E|--------------5------------|

e|------------------------------------|
B|------------------------------------|
G|------------------------------------|
D|------------------------------------|
A|----7-7--5-7--5-7-5--7-7------------|
E|--------------------------5-5-4-3---|

Close panel

Help Rate This Tab by Voting Up or Down

Vote Up Vote Down
Rating: -0 +0

Other Songs Like This

x

Copyright © 2017