Song: Gimme All Your Love

Band: Alabama Shakes

Rating: -0 +0 Views: 85

-------------------------------------------------------------------------------
                             Gimme All Your Love - Alabama Shakes
-------------------------------------------------------------------------------
Tabbed by: Bubbla

Tuning: Standard



    

   D              A           D             F#m D             A           D            F#m              
e|-9999--7h9-7-5--------------9999--7h9-7-12----9999--7h9-7-5-------------9979-7h9-7-12----|
B|-7777--7---7-5--5--7h9p7-5--7777--7---7-12-2--7777--7---7-5-5--7h9p7-5--7777-7---7-12-2--|
G|-7777-----------6-----------7777-----------2--7777----------6-----------7777----------2--|
D|-7777-----------7-----------7777-----------4--7777----------7-----------7777----------4--|
A|----------------7--------------------------4----------------7-------------------------4--|
E|-----------------------------------------------------------------------------------------|

D         A
So much is going on
D                 F#m
But you can always come around
D             A
Why don't you sit with me for just a little while?
D                  F#m
Tell me, what's wrong?

D                            A
If you just gimme all your love
D                F#m
Gimme all you got, baby
D                 A
Gimme all your love
(Play the bridge)
Bit more



    

(Bridge)
e|-9979-7h9-7-12-------------------------------------------------------------|
B|-7777-7---7-12-2-----------------------------------------------------------|
G|-7777----------2-----------------------------------------------------------|
D|-7777----------4-----------------------------------------------------------|
A|---------------4-----------------------------------------------------------|
E|---------------------------------------------------------------------------|

D                   A              
So tell me what you wanna do
D                           F#m
You say to [?] that doesn't fit with you
D             A 
Why don't you talk to me for just a little while?
D                           F#m
I can only try to make it right


D                            A
If you just gimme all your love
D                F#m
Gimme all you got, baby
D                 A
Gimme all your love
(Play the bridge)

   D          F#   D          F#    D          F#   D          F#
e|-14-12-14-12-----14-12-14-12------14-12-14-12-----14-12-14-12--------------|
B|-15-12-12-12-14--15-12-12-12-14---15-12-12-12-14--15-12-12-12-14-----------|
G|-14----------15--14----------15---14----------15--14----------15-----------|
D|-------------16--------------16---------------16--------------16-----------|
A|---------------------------------------------------------------------------|
E|---------------------------------------------------------------------------|

   D          F#   D          F#
e|-14-12-16-12-18--14-12-14-12-----------------------------------------------|
B|-15-12-12-12-14--15-12-12-12-14-14-14--------------------------------------|
G|-14----------15--14----------15-15-15--------------------------------------|
D|-------------16--------------16-16-16--------------------------------------|
A|---------------------------------------------------------------------------|
E|---------------------------------------------------------------------------|

   D     D      A     A     D     D     F#m          F#m
e|-9999--9999---------------9999--9999---------------------------------------|
B|-7777--7777---5555--5555--7777--7777--10-10-10-10--2222--------------------|
G|-7777--7777---6666--6666--7777--7777--11-11-11-11--2222--------------------|
D|-7777--7777---7777--7777--7777--7777--11-11-11-11--4444--------------------|
A|--------------7777--7777--------------9--9--9--9---4444--------------------|
E|---------------------------------------------------------------------------|

   D     D      A     A     D             F#m
e|-9999--9999---------------9999--7h9-7-12-----------------------------------|
B|-7777--7777---5555--5555--7777--7---7-12-2---------------------------------|
G|-7777--7777---6666--6666--7777-----------2---------------------------------|
D|-7777--7777---7777--7777--7777-----------4---------------------------------|
A|--------------7777--7777-----------------4---------------------------------|
E|---------------------------------------------------------------------------|


Solo
e|---------------------------------------------------------------------------|
B|-10------------5------------10-------------------------10------------------|
G|-11------------6------------11---------14-14b-14b-14b--11------------------|
D|-12------12-14-7--------7-9-12------12-----------------12------12-14-------|
A|-12--/14-------7---/9-9-----12--/14--------------------12--/14-------------|
E|-10------------5------------10-------------------------10------------------|

e|---------------------------------------------------------------------------|
B|-5-------------10----------------------------------------------------------|
G|-6-------------11--------------9b------------------------------------------|
D|-7--------7-9--12---11/12\11-9---------------------------------------------|
A|-7---/9-9------12----------------------------------------------------------|
E|-5-------------10----------------------------------------------------------|

D                 A
Gimme all your love

D                F#m
Gimme all you got, baby

D                 A
Gimme all your love
(play the bridge)

   D              A           D               
e|-9--7h9-7-5--------------9999------------------------------------------------------------|
B|-7--7---7-5--5--7h9p7-5--7777------------------------------------------------------------|
G|-7-----------6-----------7777------------------------------------------------------------|
D|-7-----------7-----------7777------------------------------------------------------------|
A|-------------7---------------------------------------------------------------------------|
E|-----------------------------------------------------------------------------------------|

************************************

| /   slide up
| \   slide down
| h   hammer-on
| p   pull-off
| ~   vibrato
| +   harmonic
| x   Mute note
| b   Bend
| pb  Pre-bend
| br  Bend release
| pbr Pre-bend release
| brb Bend release bend

************************************

Close panel

Help Rate This Tab by Voting Up or Down

Vote Up Vote Down
Rating: -0 +0

Other Songs Like This

x

Copyright © 2017