Song: Grande Finale

Band: Alice Cooper
Composed By: Alice Cooper, Bob Ezrin, Dennis Dunaway, Elmer Bernstein, Glen Buxton, Mack David, Michael Bruce, Neal Smith

Rating: -1 +1 Views: 200



    

																				Band: Alice Cooper
Song: Grande Finale
Album: School's Out
Year: 1972
Tabbed by DoteStudios
Email is manbearpigisreal@gmail.com

 This is everything the keyboard and horns are playing, the guitars are 
fde
just playing Gm 
C,Bb - Gm - C,Bb.

Keys
b = bend
r = release
\ = slide up neck
/ = slide down neck
h = hammer-on
p = pull-off
~ = hold note



    

0:38
E--------------------|
B-----5--------------|
G-7~~------------5~~-|
D--------5--8--5-----|
A--------------------|
E--------------------|

0:46
E--------------------|
B-----8-6------------|
G-7~~------7-----5~~-|
D------------5-8-----|
A--------------------|
E--------------------|

0:56
E------------------------------|
B-----------6------------------|
G-7--7--5-7---7----------------|
D---------------5-8--5-8-8-5~~-|
A------------------------------|
E------------------------------|

1:04
E--------------------------|
B---6-8~~------------------|
G-7-------7----------5-----|
D------------5--8--5---5~~-|
A--------------------------|
E--------------------------|

1:14
E--------------------------------|
B---6-8~~-8-6--------------------|
G-7-----------7-----5--5--5--5~~-|
D---------------5-8--------------|
A--------------------------------|
E--------------------------------|
1:24
E-----------------------------|
B-----------6-----------------|
G-7--7--5-7---7---------------|
D---------------5-8--5-8--5~~-|
A-----------------------------|
E-----------------------------|

1:34
Guitar
E------------------------------------|
B------------------------------------|
G-5-3---3----------12-10----10--12\--|
D-----5----5\------------12----------|
A------------------------------------|
E------------------------------------|

E----------------------------------10~~-|
B---------------------------------------|
G-5-3---3----------12-10----10--12------|
D-----5----5\------------12-------------|
A---------------------------------------|
E---------------------------------------|

E---------------------------------------|
B---------------------------------------|
G-5-3---3----------12-10----10/12-10\5--|
D-----5----5\------------12-------------|
A---------------------------------------|
E---------------------------------------|

2:00
Back to horns

View Just Lyrics...

POW!

View Albums that This Song Appears On...

  • School's Out

    Genre: Pop/Rock Label: Warner Bros. Song Duration on Album: 4:35 Album Duration: 35:59

    Release Date: 1972

    Moods: Bravado, Confident, Gutsy, Irreverent, Urgent, Boisterous, Campy, Playful, Rebellious, Sleazy, Theatrical

    Styles: Hard Rock, Heavy Metal, Album Rock, Arena Rock, Detroit Rock, Art Rock

    Themes: Cool & Cocky, Empowering, Freedom, Guys Night Out, Introspection, Maverick, Mischievous, Partying, Playful, School, The Creative Side

  • 3 for 1 Box Set

    Genre: Pop/Rock Label: Warner Strategic Marketing Song Duration on Album: 9:45 Album Duration: 02:04:29

    Release Date: December 11, 2001

    Moods: Provocative, Humorous, Theatrical, Boisterous, Bravado, Campy, Confrontational, Irreverent, Nocturnal, Ominous, Outrageous, Rebellious, Self-Conscious, Playful

    Styles: Hard Rock, Heavy Metal, Detroit Rock

  • Rhino Classic Albums Collection [f.y.e. Exclusive]

    Genre: Pop/Rock Label: Rhino Song Duration on Album: 4:25 Album Duration: 01:55:33

    Release Date: November 27, 2009

    Moods: Angst-Ridden, Bravado, Gritty, Intense, Irreverent, Nocturnal, Paranoid, Self-Conscious, Street-Smart, Urgent, Aggressive, Brash, Campy, Outrageous, Provocative, Raucous, Sleazy, Theatrical, Boisterous, Confrontational, Menacing, Rebellious

    Styles: Hard Rock, Heavy Metal

    Themes: Cool & Cocky, Guys Night Out, Hanging Out, Late Night, Maverick, Partying, Playful, The Creative Side

Close panel

Help Rate This Tab by Voting Up or Down

Vote Up Vote Down
Rating: -1 +1

Other Songs Like This

x

Copyright © 2019