Song: Runaways

Band: All Time Low
Composed By: Tim Buckley

Rating: -0 +0 Views: 88

Runaways - All Time Low

Latest song from the band's sixth studio album Future, out on April 6th. So catchy!
I don't know if this exactly how the band play it however, it sounds pretty good.



    

Tuning: Standard

Intro:

Guitar 2:



    

e|------------------------------------------|
b|--12----12----12----12----12----12-----2--|
g|-----13----13----13----13----13----13--2--|
d|---------------------------------------2--|
A|---------------------------------------0--|
E|------------------------------------------|

Verse:

Guitar 1 (muted):

    Only a quitter, would let it go...
e|-------------------------------------------------------------------|
b|--------------------------------------------------2-2-2-2-2-2-2-2--|
g|--9-9-9-9-9-9-9-9-8-8-8-8-8-8-8-8-7-7-7-7-7-7-7-7-2-2-2-2-2-2-2-2--|
d|--9-9-9-9-9-9-9-9-8-8-8-8-8-8-8-8-7-7-7-7-7-7-7-7-2-2-2-2-2-2-2-2--|    x2
A|--7-7-7-7-7-7-7-7-6-6-6-6-6-6-6-6-5-5-5-5-5-5-5-5-0-0-0-0-0-0-0-0--|
E|-------------------------------------------------------------------|

Pre-Chorus:
    
Guitar 1:

    We're going down this road...
e|----------------------------------|
b|--------------------------0-0--0--|
g|--4-4--4--6-6--6--9-9--9--2-2--2--|
d|--4-4--4--6-6--6--9-9--9--2-2--2--|    x2
A|--2-2--2--4-4--4--7-7--7--2-2--2--|
E|----------------------------------|

Chorus:

Guitar 1:
    
    So let's runaway...
e|-------------------------------------------------------------------|
b|--------------------------------------------------2-2-2-2-2-2-2-2--|
g|--9-9-9-9-9-9-9-9-4-4-4-4-4-4-4-4-6-6-6-6-6-6-6-6-2-2-2-2-2-2-2-2--|
d|--9-9-9-9-9-9-9-9-4-4-4-4-4-4-4-4-6-6-6-6-6-6-6-6-2-2-2-2-2-2-2-2--|    x2
A|--7-7-7-7-7-7-7-7-2-2-2-2-2-2-2-2-4-4-4-4-4-4-4-4-0-0-0-0-0-0-0-0--|
E|-------------------------------------------------------------------|

   When the sun goes down...
e|-------------------------------------------------|
b|--------------------------------2-2-2-2-2-2-2-2--|
g|--9-9----8-8----7-7-7-7-7-7-7-7-2-2-2-2-2-2-2-2--|
d|--9-9----8-8----7-7-7-7-7-7-7-7-2-2-2-2-2-2-2-2--|
A|--7-7----6-6----5-5-5-5-5-5-5-5-0-0-0-0-0-0-0-0--|
E|-------------------------------------------------|

    Just like runaways...
e|-----------------------------------------------------|
b|--------------------------------------------------2--|
g|--9-9-9-9-9-9-9-9-4-4-4-4-4-4-4-4-6-6-6-6-6-6-6-6-2--|
d|--9-9-9-9-9-9-9-9-4-4-4-4-4-4-4-4-6-6-6-6-6-6-6-6-2--|
A|--7-7-7-7-7-7-7-7-2-2-2-2-2-2-2-2-4-4-4-4-4-4-4-4-0--|
E|-----------------------------------------------------|

2nd Verse: 

Guitar 1 (muted): 
    
    Out in the distance...
e|-------------------------------------------------------------------|
b|--------------------------------------------------2-2-2-2-2-2-2-2--|
g|--9-9-9-9-9-9-9-9-8-8-8-8-8-8-8-8-7-7-7-7-7-7-7-7-2-2-2-2-2-2-2-2--|
d|--9-9-9-9-9-9-9-9-8-8-8-8-8-8-8-8-7-7-7-7-7-7-7-7-2-2-2-2-2-2-2-2--|    x2
A|--7-7-7-7-7-7-7-7-6-6-6-6-6-6-6-6-5-5-5-5-5-5-5-5-0-0-0-0-0-0-0-0--|
E|-------------------------------------------------------------------|

Guitar 2:

e|---------------------------------------------------|
b|--12----12----12----12----12----12----12----12-----|
g|-----13----13----13----13----13----13----13----13--|
d|---------------------------------------------------|    x2
A|---------------------------------------------------|
E|---------------------------------------------------|

Pre Chorus:

Guitar 1:

    We're going down this road...
e|----------------------------------|
b|--------------------------2-2--2--|
g|--4-4--4--6-6--6--9-9--9--2-2--2--|
d|--4-4--4--6-6--6--9-9--9--2-2--2--|    x2
A|--2-2--2--4-4--4--7-7--7--0-0--0--|  
E|----------------------------------|

Chorus:

Guitar 1:

    So let's runaway...
e|-------------------------------------------------------------------|
b|--------------------------------------------------2-2-2-2-2-2-2-2--|
g|--9-9-9-9-9-9-9-9-4-4-4-4-4-4-4-4-6-6-6-6-6-6-6-6-2-2-2-2-2-2-2-2--|
d|--9-9-9-9-9-9-9-9-4-4-4-4-4-4-4-4-6-6-6-6-6-6-6-6-2-2-2-2-2-2-2-2--|    x2
A|--7-7-7-7-7-7-7-7-2-2-2-2-2-2-2-2-4-4-4-4-4-4-4-4-0-0-0-0-0-0-0-0--|
E|-------------------------------------------------------------------|

    When the sun goes down...
e|-------------------------------------------------|
b|--------------------------------2-2-2-2-2-2-2-2--|
g|--9-9----8-8----7-7-7-7-7-7-7-7-2-2-2-2-2-2-2-2--|
d|--9-9----8-8----7-7-7-7-7-7-7-7-2-2-2-2-2-2-2-2--|
A|--7-7----6-6----5-5-5-5-5-5-5-5-0-0-0-0-0-0-0-0--|
E|-------------------------------------------------|

    So let's runaway...
e|-----------------------------------------------------|
b|--------------------------------------------------2--|
g|--9-9-9-9-9-9-9-9-4-4-4-4-4-4-4-4-6-6-6-6-6-6-6-6-2--|
d|--9-9-9-9-9-9-9-9-4-4-4-4-4-4-4-4-6-6-6-6-6-6-6-6-2--|
A|--7-7-7-7-7-7-7-7-2-2-2-2-2-2-2-2-4-4-4-4-4-4-4-4-0--|
E|-----------------------------------------------------|

Bridge:

Guitar 1:

e|-------------------------------------------------------------------|
b|--2-2-2-2-2-2-2-2--------------------------------------------------|
g|--2-2-2-2-2-2-2-2-4-4-4-4-4-4-4-4-6-6-6-6-6-6-6-6-9-9-9-9-9-9-9-9--|
d|--2-2-2-2-2-2-2-2-4-4-4-4-4-4-4-4-6-6-6-6-6-6-6-6-9-9-9-9-9-9-9-9--|    x6
A|--0-0-0-0-0-0-0-0-2-2-2-2-2-2-2-2-4-4-4-4-4-4-4-4-7-7-7-7-7-7-7-7--|
E|-------------------------------------------------------------------|

NOTE: Play the bridge muted 4 times, and then open 2 times

Chorus:

Guitar 1:

    So let's runaway...
e|-------------------------------------------------------------------|
b|--------------------------------------------------2-2-2-2-2-2-2-2--|
g|--9-9-9-9-9-9-9-9-4-4-4-4-4-4-4-4-6-6-6-6-6-6-6-6-2-2-2-2-2-2-2-2--|
d|--9-9-9-9-9-9-9-9-4-4-4-4-4-4-4-4-6-6-6-6-6-6-6-6-2-2-2-2-2-2-2-2--|    x2
A|--7-7-7-7-7-7-7-7-2-2-2-2-2-2-2-2-4-4-4-4-4-4-4-4-0-0-0-0-0-0-0-0--|
E|-------------------------------------------------------------------|

    When the sun goes down...
e|-------------------------------------------------|
b|--------------------------------2-2-2-2-2-2-2-2--|
g|--9-9----8-8----7-7-7-7-7-7-7-7-2-2-2-2-2-2-2-2--|
d|--9-9----8-8----7-7-7-7-7-7-7-7-2-2-2-2-2-2-2-2--|
A|--7-7----6-6----5-5-5-5-5-5-5-5-0-0-0-0-0-0-0-0--|
E|-------------------------------------------------|

    So let's runaway...
e|-------------------------------------------------------------------|
b|--------------------------------------------------2-2-2-2-2-2-2-2--|
g|--9-9-9-9-9-9-9-9-6-6-6-6-6-6-6-6-4-4-4-4-4-4-4-4-2-2-2-2-2-2-2-2--|
d|--9-9-9-9-9-9-9-9-6-6-6-6-6-6-6-6-4-4-4-4-4-4-4-4-2-2-2-2-2-2-2-2--| x2 (fade out)
A|--7-7-7-7-7-7-7-7-8-8-8-8-8-8-8-8-6-6-6-6-6-6-6-6-0-0-0-0-0-0-0-0--|
E|-------------------------------------------------------------------|

That's it! There are still some lead guitar parts which I'm still trying to figure out so
if anyone has any suggestions please let me know :)

View Albums that This Song Appears On...

  • Future Hearts

    Genre: Pop/Rock Label: Hopeless Records Song Duration on Album: 3:34 Album Duration: 45:30

    Release Date: April 7, 2015

    Moods: Exuberant, Summery, Boisterous, Bright, Earnest, Cathartic, Celebratory, Energetic, Fun, Passionate, Rambunctious, Raucous, Reflective, Rousing, Rowdy, Sentimental, Sugary, Angst-Ridden, Urgent

    Styles: Emo-Pop, Alternative/Indie Rock, Punk-Pop

    Themes: Hanging Out, Summer, TGIF, Affection/Fondness, Girls Night Out, Guys Night Out

Close panel

Help Rate This Tab by Voting Up or Down

Vote Up Vote Down
Rating: -0 +0

Other Songs Like This

x

Copyright © 2017