Song: Thousand Years Of Oppression Bass

Band: Amon Amarth

Rating: -1 +1 Views: 75

__________________________________________________________
--==        Amon Amarth - Thousand years of Oppersion         ==--
    __________________________________________________________




    

           THIS IS ONE OF MY FAVORITES SONGS
                AND IT IS VERY SIMPLE


Tabbed by: Domi 166
Tune:
B E A D




    

Or 5 String Normal Tuning
B E A D G

                   Verse 1
D|-----------|-----------|-----------|-----------|
A|-----------|-----------|-----------|-----------|
E|-----------|-----------|-----------|-----------|
B|-3--3--3--3|-3--3--0--0|-7--7--7--7|-7--7--7--7|

                   Verse 2
D|-----------|-----------|-----------|-------------|
A|-----------|-----------|-----------|-------------|
E|-----------|-----------|-----------|-------------|
B|-3---------|--(3)---0--|--7--------|-------------|
ring|------------|        ring|--------------------|


                   Verse 3
D|-----------|-----------|-----------|-------------|
A|-----------|-----------|-----------|-------------|
E|-----------|-----------|-----------|-------------|
B|-3---------|--(3)---0--|--7--------|------10-----|
ring|------------|        ring|--------------------|


                  Verse 4
D|---------------|---------------|---------------|---------------|
A|---------------|---------------|---------------|---------------|
E|---------------|---------------|---------------|---------------|
B|3-3-3-3-3-3-3-3|3-3-3-3-0-0-0-0|7-7-7-7-7-7-7-7|7-7-7-7-7-7-7-7|


                 Verse 5
D|-----------|-----------|-----------|-----------|
A|-----------|-----------|-----------|-----------|
E|-----------|-----------|-----------|-----------|
B|-7---------|-9---------|-10--------|-12--------|


                  Verse 6
D|---------------|---------------|---------------|-------------------|
A|---------------|---------------|---------------|-------------------|
E|---------------|---------------|---------------|-------------------|
B|3-3-3-3-3-3-3-3|3-3-3-3-0-0-0-0|7-7-7-7-7-7-7-7|7-7-7-7-10-10-10-10|


LIST:
-----
Verse 1 (8x)
Verse 2 (2x)
Verse 3 (4x)
Verse 4 (6x)
Verse 5 (4x)
Verse 6 (8x)
Verse 4 (4x)
Verse 2 (2x)
Verse 3 ( until end )

Close panel

Help Rate This Tab by Voting Up or Down

Vote Up Vote Down
Rating: -1 +1

Other Songs Like This

x

Copyright © 2019