Song: Bliss

Band: Annihilator

Rating: -1 +1 Views: 68

BLISS from 94' Annihilator   King of The Kill




    

E-----------------------------------------------------------------------------
B-----------3--5-5----------3--5-5----------------6---------------------6-----
G----3--5-------------3--5---------------3--5--3-----5--3-----3--5--3----5--3-
D------------------------------------5---------------------5------------------
A-----------------------------------------------------------------------------
E-----------------------------------------------------------------------------

That's the main part 

then use these power chords      you'll find easily where to use them



    
      
---     ---     ---
---     ---     ---
---     ---     -3-
-3-     -5-     -3-
-3-     -5-     -1-
-1-     -3-     ---


tabed by POL

Black_Obelisk on IRC
Homepage at    www.geocities.com/SunsetStrip/Studio/2012/

Close panel

Help Rate This Tab by Voting Up or Down

Vote Up Vote Down
Rating: -1 +1

Other Songs Like This

x

Copyright © 2018