Song: Air Bass

Band: Anthrax
Composed By: Anthrax

Rating: -0 +0 Views: 127



    

																				Drop-D Tuning

INTRO X6
G-----------------------------------------------------------------|
D-----------------------------------------------------------------|
A------------2~2~ -------4~4~ ------------------------------------|
D---------------------------------------4~4~ ---------5~5~ -------|

VERSE
G-----------------------------------------------------------------|
D-----------------------------------------------------------------|
A----------5>>----------------------------------------------------|
D------------------------5>>-------0>>--------5>>-----------------|



    

VERSE CONTINUED X 1
G-------------------------------------------------------------------|
D-------------------------------------------------------------------|
A-----------5>>-----------------------------------------------------|
D-------------------------5>>--------0>>----------------------------|

CHORUS
G--------------------------------------------------------------------|
D--------------------------------------------------------------------|
A--------------------------------------------------------------------|
D-------4h5-4-0----4h5-4-0-----------4h5-4--7>>----------------------|

CHORUS CONTINUED X2
G----------------------------------------------------------------------|
D----------------------------------------------------------------------|
A----------------------------------------------------------------------|
D--------4h5-4-0----4h5-4-0--------4h5-4--7>>----4-4-4h5-4-0-----------|

INTRO X 6

CHORUS X 2

GUITAR/DRUM SOLO

THEN..X 1
G-------------------------------------------------------------------------|
D-------------------------------------------------------------------------|
A-------------------------------------------------------------------------|
D------2--2--2--2/7>>------2-2-2/7>>------2-2-2/7>>--------2-2-2/7>>------|

VERSE  X 1
CHORUS  X2

END ON
G--------------------------|
D--------------------------|
A--------------------------|
D----------0~ -------------|

View Just Lyrics...

Young and free, something you'll never be
A childhood's end, it's lunacy
Pure dictation, they don't listen
And you're just waiting for what you're missing

Welcome to your nightmare
You just can't walk away
It's time for you, to choose, your fate
You just can't let it lay
Welcome to your nightmare
Your whole life's on the way,
Today

You're no good, misunderstood, A.I.R.
All their hopes and visions, of what they want you to be
Crucial times, made up minds, A.I.R.
So high and mighty, though much too blind to see

Who are you gonna live your life for?
Conformity will trap you like a locked door
Independence means owning your decisions
Authority will put your soul in prison

Fight, or go insane, there's no one else to blame
Stop, their influence, you can't give them a chance
Break, right through the wall, that separates us all
Start, your second life, without their hands in sight

You got your pride, you got your visions
Don't subside, don't ever give in
Don't compromise just keep on grinning
The games they play you just keep on winning
Keep on winning
Keep on winning
Keep on winning
A.I.R.

View Albums that This Song Appears On...

  • Spreading the Disease

    Genre: Pop/Rock Label: Island / Megaforce/Island Song Duration on Album: 5:45 Album Duration: 43:49

    Release Date: 1985

    Moods: Angry, Bleak, Harsh, Hostile, Malevolent, Menacing, Nihilistic, Outrageous, Rebellious, Reckless, Visceral

    Styles: Heavy Metal, Speed/Thrash Metal, Hair Metal

  • Live Noize

    Label: Pinnacle

    Release Date: July 28, 1992

    Styles: Heavy Metal, Rap-Metal, Speed/Thrash Metal

  • Anthrax Live: The Island Years

    Genre: Pop/Rock Label: Universal Special Products / PSM records Song Duration on Album: 4:35 Album Duration: 01:09:26

    Release Date: April 5, 1994

    Moods: Aggressive, Angry, Bleak, Confrontational, Harsh, Hostile, Malevolent, Menacing, Nihilistic, Rebellious, Visceral

    Styles: Heavy Metal, Rap-Metal, Speed/Thrash Metal

Close panel

Help Rate This Tab by Voting Up or Down

Vote Up Vote Down
Rating: -0 +0

Other Songs Like This

x

Copyright © 2017