Song: Playdough

Band: Aquabats
Composed By: The Aquabats

Rating: -0 +0 Views: 61



    

																				the aquabat's-playdough
(tabbed by steve sanchez)

*************************************************
*this is just my redition of this song. it may  *
*have errors.                                   *
*************************************************

intro/outro=with  minor distortion



    


e-----------------------------------------------|
b-----------------------------------------------|
g-----------------------------------------------|
d-----------------------------------------------|
a---8----8---8--8-7-6-5-----8---8---8-----------|
E-6----6---6--------------6---6---6-----6~~~~~~-|

play that 4 times


verse=clean
   F#     D  D# F#     B

e--6x-X6--5x/6--6x-X6--7~~~~----------------------|
b--7x-----7x/8--7x-----7~~~~-let ring-------------|
g--6x-----7x/8--6x-----8~~~~----------------------|
d---------7x/8------------------------------------|
a---------5x/6------------------------------------|
E---------5x/6------------------------------------|


chorus=clean
part1=fast part of chorus

   F#   B    E    F#

e--6x-X4-7x-X4-7x-X4-6x-X4-----------------------------|
b--7x----7x----9x----7x--------------------------------|
g--6x----8x----9x----6x--------------------------------|
d--------9x--------------------------------------------|
a------------------------------------------------------|
E------------------------------------------------------|

part 2=slow part of chorus

its the same just finger pick the same chords up there
in the same position of course. :)


bridge
(afer secound chorus)
is exactly like the chorus exactly the same without the
ska its just strumming faster and faster.


order:
intro/outro
verse
chorus
verse
chorus
bridge
intro/outro

time to figure song and write.
15 minutes.

View Albums that This Song Appears On...

  • The Return of the Aquabats

    Genre: Pop/Rock Label: Fearless Records Song Duration on Album: 3:40 Album Duration: 34:24

    Release Date: July 26, 1996

    Styles: Alternative Pop/Rock, Alternative/Indie Rock, Ska-Punk, Third Wave Ska Revival

Close panel

Help Rate This Tab by Voting Up or Down

Vote Up Vote Down
Rating: -0 +0

Other Songs Like This

x

Copyright © 2017