Song: Kabira Mtv Unplugged

Band: Arijit Singh

Rating: -0 +0 Views: 24

------------------------------------------------------------------------------
                             Kabira(MTV Unplugged) Intro - Arijit Singh
-------------------------------------------------------------------------------
Tabbed by: bro balls
E-mail:yobiraj@gmail.com

Tuning:Standard 



    

e|--------0------------------------------------------------------------------|
B|-----3---0----2h3p2-------5/7-5--------------------------------------------|
G|-2/4-------2-------4p2-0---------------------------------------------------|
D|---------------------------------------------------------------------------|
A|---------------------------------------------------------------------------|
E|---------------------------------------------------------------------------|

After playing this x7...

e|--------0------------------------------------------------------------------|
B|-----3---0-----------------------------------------------------------------|
G|-2/4--------2--------------------------------------------------------------|
D|---------------------------------------------------------------------------|
A|---------------------------------------------------------------------------|
E|---------------------------------------------------------------------------|



    



************************************

| /   slide up
| h   hammer-on
| p   pull-off

************************************

Close panel

Help Rate This Tab by Voting Up or Down

Vote Up Vote Down
Rating: -0 +0

Other Songs Like This

x

Copyright © 2017