Song: Concrete

Band: As It Is
Composed By: The Concretes, Victoria Bergsman

Rating: -0 +0 Views: 105

Rhythm Guitar
 
  Intro + Verse 
e|---------------------------------|
B|---------------------------------|
G|-6-------------------------------| - 0:08 - 0:51
D|-6-------7-------2-------9-------| - 1:10 - 1:27
A|-4-------7-------2-------9-------|
E|---------5-------0-------7-------|



    

  Chorus 1 - 0:58 - 1:09
e|---------------------------------|
B|---------------------------------| 
G|---------------------------------|
D|-7---7---2---2---9---9-----------|
A|-7---7---2---2---9---9-----------|
E|-5---5---0---0---7---7-----------|

  Chorus 2 - 1:28 - 1:45
e|------------------------------------------------------------------|
B|------------------------------------------------------------------| 
G|------------------------------------------------------------------|
D|-7---7---2---2---9---9-----------7---7---2---2---9---9------------|
A|-7---7---2---2---9---9-----------7---7---2---2---9---9------------|
E|-5---5---0---0---7---7-----------5---5---0---0---7---7------------|

e|---------------------------------------------------------------------------------|
B|---------------------------------------------------------------------------------| 
G|---------------------------------------------------------------------------------| - Palm Mute The 
D|-7---7---2---2---9---9-----------7---7---2---2---9---9---9---9---9---9---9---9---|   Last 7 B Notes
A|-7---7---2---2---9---9-----------7---7---2---2---9---9---9---9---9---9---9---9---|
E|-5---5---0---0---7---7-----------5---5---0---0---7---7---7---7---7---7---7---7---|



    

  Bridge x2
e|---------------------------------|
B|---------------------------------|
G|---------------------------------| - 1:45- 1:54
D|-4-4-4-7-9-9-9-9---2-2-2-2-9-9-9-| 
A|-4-4-4-7-7-7-7-7---2-2-2-2-9-9-9-|
E|-2-2-2-5-5-5-5-5---0-0-0-0-7-7-7-|

  Bridge x4
e|---------------------------------|
B|---------------------------------|
G|---------------------------------| - 1:54 - 2:11
D|-4-4-4-4-9-9-9-9-2-2-2-2-9-9-9-9-|
A|-4-4-4-4-7-7-7-7-2-2-2-2-9-9-9-9-|
E|-2-2-2-2-5-5-5-5-0-0-0-0-7-7-7-7-|

  Chorus 3 - 2:11
e|-------------------------|
B|-------------------------|
G|-------------------------|
D|-7---7---2---2---9---9---|
A|-7---7---2---2---9---9---|
E|-5---5---0---0---7---7---|

e|------------------------------------------------------------------|
B|------------------------------------------------------------------|
G|------------------------------------------------------------------|
D|-7---7---2---2---9---9-----------7---7---2---2---9---9------------|
A|-7---7---2---2---9---9-----------7---7---2---2---9---9------------|
E|-5---5---0---0---7---7-----------5---5---0---0---7---7------------|

e|---------------------------------------------------------------------------------|
B|---------------------------------------------------------------------------------| 
G|---------------------------------------------------------------------------------|
D|-7---7---2---2---9---9-----------7---7-----------9---9---9---9---9---9---9---9---|
A|-7---7---2---2---9---9-----------7---7-----------9---9---9---9---9---9---9---9---|
E|-5---5---0---0---7---7-----------5---5-----------7---7---7---7---7---7---7---7---|

e|---------------------------------|
B|---------------------------------|
G|---------------------------------|
D|-7-7-7-7-2-2-2-2-9-9-9-9-9-9-9-9-|
A|-7-7-7-7-2-2-2-2-9-9-9-9-9-9-9-9-|
E|-5-5-5-5-0-0-0-0-7-7-7-7-7-7-7-7-|x3

e|---------------------------------|
B|---------------------------------|
G|---------------------------------|
D|-7---7---2---2---9---------------|
A|-7---7---2---2---9---------------|
E|-5---5---0---0---7---------------|
   1 + 2 + 3 + 4 + 1 + 2 + 3 + 4 +

  Lead Guitar

  Intro + Verse (Fade In)
e|---------------------------------|
B|---------------------------------|
G|-9---9---8---8---9---9---9---9---|
D|---9---9---9---9---9---9---9---9-|
A|---------------------------------|
E|---------------------------------|
  
  Pre-Chorus
e|---------7---------------7---------------7-------4-6-------------|
B|-5----------5----5-----------5---5-----------5---------5-7-------|
G|-----------------------------------------------------4-----4-----| - Skip The Last 2
D|-----------------------------------------------------------------|   Notes on 4th Time
A|-----------------------------------------------------------------|
E|-----------------------------------------------------------------|
   
  Chorus
e|-------------------------|
B|-------------------------|
G|-9-9-----13-13-----11-11-| These Octaves Are Played
D|-------------------------| In Time With the Rhythm.
A|-7-7-----11-11-----9--9--|
E|-------------------------|

e|-----------------|
B|-----------------|
G|-9-9-----9-9-----| This Is Also Played
D|-----9-9-----9-9-| (Palm Muted)
A|-----------------|
E|-----------------|

  Bridge
e|---------------------|
B|---12---12---12------|
G|-9----9----9----9-11-|
D|---------------------|
A|---------------------|
E|---------------------|

  Outro Chorus
e|------------------------|
B|-12---------------------|
G|------9-8-9-8-9-8-9-8-9-|
D|------------------------|
A|------------------------|
E|------------------------|

View Albums that This Song Appears On...

  • Never Happy, Ever After

    Genre: Pop/Rock Label: Fearless Records Song Duration on Album: 2:57 Album Duration: 36:17

    Release Date: April 20, 2015

    Moods: Earnest, Introspective, Animated, Cathartic, Dramatic, Nostalgic, Passionate, Reflective, Serious, Angst-Ridden, Bombastic, Defiant, Energetic, Explosive, Lively, Plaintive, Poignant, Powerful, Raucous, Rowdy, Searching, Thoughtful, Tuneful, Turbulent, Visceral, Yearning, Amiable/Good-Natured, Bittersweet, Brash, Fractured

    Styles: Punk-Pop, Alternative/Indie Rock, Emo-Pop

    Themes: Everyday Life, Hanging Out, Introspection, Reflection, Relationships, Affection/Fondness, Passion

Close panel

Help Rate This Tab by Voting Up or Down

Vote Up Vote Down
Rating: -0 +0

Other Songs Like This

x

Copyright © 2017