Song: Becoming The Bull Bass

Band: Atreyu
Composed By: Atreyu

Rating: -0 +0 Views: 4067

F|-----------------------------------------------------------------------------------------------|
C|-----------------------------------------------------------------------------------------------|
G|--------------------------------3-3-3-3-3-3-3-3------------------------------------------------|
C|8-8-8-8-8-8-8-8-0-0-0-0-0-0-0-0-----------------5-5-5-5-5-5-5-5-8-8-8-8-8-8-8-8-0-0-0-0-0-0-0-0|

F|-----------------------------------------------------------------------------------------------|
C|-----------------------------------------------------------------------------------------------|
G|3-3-3-3-3-3-3-3-2-2-2-2-5-3-0-----------------------------------3-3-3-3-3-3-3-3----------------|
C|------------------------------5-8-8-8-8-8-8-8-8-0-0-0-0-0-0-0-0-----------------5-5-5-5-5-5-5-5|



    

F|------------------------------------------------------------------|
C|---------------------------------------------------------/9-9-9-9-|
G|---------------------------------3-3-3-3-3-3-3-3-2-2-2-2----------|
C|-8-8-8-8-8-8-8-8-0-0-0-0-0-0-0-0----------------------------------|

View Albums that This Song Appears On...

  • Lead Sails Paper Anchor

    Genre: Pop/Rock Label: Hollywood Records (UK) Song Duration on Album: 3:41 Album Duration: 48:36

    Release Date: August 28, 2007

    Moods: Crunchy, Intense, Aggressive, Angry, Angst-Ridden, Bitter, Brooding, Confident, Dramatic, Fierce, Gritty, Gutsy, Rousing, Tense/Anxious, Urgent, Visceral, Slick

    Styles: Heavy Metal, Punk Metal, Alternative Metal, Nü Metal

    Themes: Empowering, Guys Night Out, Politics/Society, Feeling Blue, Heartache, Introspection

  • Kerrang!: The Best of 2007

    Label: Kerrang

    Release Date: 2007

  • Promo Only: Modern Rock Radio (September 2007)

    Label: Promo Only

Close panel

Help Rate This Tab by Voting Up or Down

Vote Up Vote Down
Rating: -0 +0

Comments for This Music

  • Jeremy

    Learn the basics, follow your judgment and trust your ears. We ended up with so much music that we had a good amount to choose from to make Sounds That Can't Be Made a strong album. Some of the applications that are availible in Dream Studio:.

  • insurance quotes car

    Porn Sex This prepare shoppers regarding forthcoming mishaps, that ought to reduce problems and will help insurers price plans tht were superior.

  • sex

    Actually no matter if someone doesn't know after that its up to other viewers that they will help, so here it takes place.

  • Isabell

    Thanks for the good writeup. It in fact was a enjoyment account it. Look advanced to more brought agreeable from you! By the way, how could we be in contact?

  • Isabell

    Thanks for the good writeup. It in fact was a enjoyment account it. Look advanced to more brought agreeable from you! By the way, how could we be in contact?

  • clique aqui

    Why not substitute a visit to the theatre with a comedy club. Once you've gotten retrenched and re-centered in your power, you can venture forth again. and promise of the "sizzle" conflicts with the reality of the "steak," one or both of.

  • Earnestine

    This post is worth everyone's attention. How can I find out more?

Other Songs Like This

x

Copyright © 2017