Song: The Temple Of The King

Band: Axel Rudi Pell

Rating: -1 +2 Views: 430
Song Name: The Temple Of The King
Band: Axel Rudi Pell
Album: The Ballads III

Tabbed by: Zaid Daba'een



    

My first tabbed song... hope you'll like it!

Tuning: Half Step Down

Intro:
d#|-------------------------------------------------------------------------|
A#|-5---3-5-3---3---------3----3---------------5-----3-5-3---3----------3---|
F#|-----------5---5-2--------5---5-4-5-4-2-----------------5---5-5----------|
C#|-------------------------------------------------------------------------|
G#|-------------------------------------------------------------------------|
D#|-------------------------------------------------------------------------|



    

d#|----------------|
A#|3/5-3---3-------|
F#|------5---4-2---|
C#|----------------|
G#|----------------|
D#|----------------|

Fill:
d#|------------------|
A#|-------5-3--------|
F#|-2-4-5-----4-5----|
C#|------------------|
G#|------------------|
D#|------------------|

C		 G  
  One day in the year of the fox
	Dm		Am
Came a time remembered well
	 F

When the strong young man
	G

Of the rising sun heard the
Am
Tolling of the great black bell

(FILL)
C		 G

  One day in the year of the fox when the
Dm	      Am	
Bell began to ring, it meant the
F		      G	
Time had come for the one to go to the
Am
Temple of the King


Dm
There in the middle of the circle, he stands
Am
Searching, Seeking,
      Dm		
With just one touch of his trembling hand
     Am	
The answer will be found
Dm
Daylight waits for the oldman's scream
Am	
Heaven, help me,
G

Just like a rush of thousand wings 
    E

It shines upon the world
	F	G 	Am     
And the day has just begun

(Intro) 
(Fill)

Repeat 1st Verse & 2nd Verse Chords

(Intro)


d#|--------------------------------------------------------12^-10----------------|
A#|-----------3-5--6-5-3--------5-6-8--8-12-13-12-10--10-13-------13-10----10-13-|
F#|--2-4-5--5-------------5p2----------------------------------------------------|
C#|------------------------------------------------------------------------------|
G#|------------------------------------------------------------------------------|
D#|------------------------------------------------------------------------------|

d#|-------12-10----------17-15-15h17-15------------------------------------------|
A#|-12-13-------13p10--------------------17-18-17-15-----------------------------|
F#|--------------------------------------------------17-16-14--------------------|
C#|-----------------------------------------------------------------14^-12-------|
G#|------------------------------------------------------------12-15-------15-12-|
D#|------------------------------------------------------------------------------|

d#|---------------------------------------------------------------------------|
A#|----------13-15-13-12--12-13-15-13-12---------------15-12-13-15-13-12------|
F#|---14^-14-----------------------------14-12---12----------------------14---|
C#|14-----------------------------------------14------------------------------|
G#|---------------------------------------------------------------------------|
D#|---------------------------------------------------------------------------|

d#|------------------17^-17^-17^-17^-15----------15---------------------------|
A#|-------------------------------------18-17-18----18-17-15------------------|
F#|----12-14-14^---------------------------------------------17^-14--------14-|
C#|-14---------------------------------------------------------------14-17----|
G#|---------------------------------------------------------------------------|
D#|---------------------------------------------------------------------------|

d#|----------------------------------------------------------------------------|
A#|-------15--17-18-17-15----15^--17-15-17----17-15-17----17-15-17----17-15-17-|
F#|-16-17-----------------17---------------17----------17----------17----------|
C#|----------------------------------------------------------------------------|
G#|----------------------------------------------------------------------------|
D#|----------------------------------------------------------------------------|

d#|-----------------------------------------------------------------------------|
A#|-17-15-17----17-15-17----17-15-17----17-15-17---18-17-15-17--18-17-15-17--18-|
F#|----------17----------17----------17-----------------------------------------|
C#|-----------------------------------------------------------------------------|
G#|-----------------------------------------------------------------------------|
D#|-----------------------------------------------------------------------------|

d#|-----------------------------------------------------------------------------|
A#|-17-15-17--18-17-15-17--17-15-17----17-15-17----17-15-17----17-15-13^^-------|
F#|---------------------------------17----------17----------17------------------|
C#|-----------------------------------------------------------------------------|
G#|-----------------------------------------------------------------------------|
D#|-----------------------------------------------------------------------------|

Help Rate This Tab by Voting Up or Down

Vote Up Vote Down
Rating: -1 +2

Other Songs Like This

Latest Sheets, Music, Lyrics and Tabs

Latest Discussion about a Sheet, Song, Lyric or Tab

x

Copyright © 2015