Song: Beg Steal Or Borrow Bass

Band: Babyshambles

Rating: -1 +1 Views: 124

-------------------------------------------------------------------------------
			     BEG,STEAL AND BORROW - BABYSHAMBLES
-------------------------------------------------------------------------------

Tabbed By : BENO93
e-mail: benji83ishere@hotmail.co.uk



    

Tuning: standard  EADG

(NOTE)
"THIS TAB IS BASED ON THE STUDIO VERSION
I DOWNLOADED IT FROM LIMEWIRE SO IT MAY NOT BE 
THE OFFICIAL TRACK SO GO EASY ON THE RATINGS




    

intro/verse/interlude (basicaly the main riff) (riff A)
"why should i wait until tommorow...."
G|--------------------------------------------------------------|
D|-------------4-------6------------6------------2--------------|
A|-----2-----5---5---7---7----6---7---7---6----3---3--5---------| X4
E|---3--3-------------------7---7-------7---7-------------------|


riff B

"CHO...CHORE, IF I CHANGE MY TUNE"
G|--------------------------------------------------------------|
D|--------------------------------------------------------------|
A|----4-6----4-6-----4-6----------------------------------------|
E|-4-4----4-4----4-4------softly>---33---4----3---4-------------|


RIFF C

"WHERE RATS TURN IT TO STARS"
G|------------------------------------------------------------------|
D|------------------------------------------------------------------|
A|---------------------333333355555555------------------------------|
E|---33333000000000000----------------------------------------------|



riff D
"theyl tell u anything"                                    what a life
G|------------------------------------------------------------------------|
D|------------------------------------------------------------------------|
A|---3333333--------------333333333---------------------------------------|
E|-------------33333333-------------3333333---00000333333-----------------|

order

RIFF A X4
RIFF B
RIFF A X2
RIFF B
RIFF C
RIFF A X3
RIFF D
RIFF A X3 
END

PLEASE RATE AND COMMENT  BYE!

Close panel

Help Rate This Tab by Voting Up or Down

Vote Up Vote Down
Rating: -1 +1

Other Songs Like This

x

Copyright © 2017