Song: Drunk Sincerity

Band: Bad Religion

Rating: -1 +1 Views: 52

Guitar Solo - tabbed by El Scorcho (mailto:gerdthebomber@kgx.at]

the chords for the whole song you find on this site work well. here's the solo the way i 
do it. enjoy.



    


E---------------|-----------|-----------|-------|----------------------|
B---------------|-7---------|-----------|-------|----------------------|
G---------6-----|---9-7-7-7-|-6-7-9-7-6-|-------|------------7h9/14----|
D---7-7-9---9-7-|-----------|-----------|-9-7-7-|-----7h9/11-----------|
A---------------|-----------|-----------|-------|-7h9------------------|
E---------------|-----------|-----------|-------|----------------------|

E----------12-|----------------------|-------------------|-------------|
B---12^14-----|-12^14--12^14^12------|-12-14-15----12----|-------------|
G-------------|-------------------14-|----------14----14-|-12-14-12----|
D-------------|----------------------|-------------------|-------------|
A-------------|----------------------|-------------------|-------------|
E-------------|----------------------|-------------------|-------------|



    

E------|-------------------|-------------|-----------------------------|
B------|/12----------------|-------------|-----------------------------|
G---11-|----14-12-11-------|/11----------|-----------------------------|
D------|-------------14-12-|----14-12-12-|-----------------------------|
A------|-------------------|-------------|-----------------------------|
E------|-------------------|-------------|-----------------------------|

========================================================================
==               Created with BUCKET O' TAB for Windows               ==
==                  For more info email gse@his.com                   ==
========================================================================

Close panel

Help Rate This Tab by Voting Up or Down

Vote Up Vote Down
Rating: -1 +1

Other Songs Like This

x

Copyright © 2018