Song: Drunk Sincerity Bass

Band: Bad Religion

Rating: -1 +1 Views: 58

band:bad religion
song:drunk sincerity
album:the gray race

Intro
G-----------------|
D-----------------|
A----5-----5-5----|
E-3-----5---------|



    

Verse
G-------------------------------------------------------------------------|
D-------------------------------------------------------------------------|
A----------------------------5-5-5-5-----------------------------5-5-5-5--|
E-5-5-5-5-5-5-5-5--3-3-3-3------------5-5-5-5-5-5-5-5--3-3-3-3------------|

G---------------------------------------------------------------------|
D---------------------------------------------------------------------|
A-2-2-2-2-2-2-2-2-----------------------------------------------------|
E------------------3-3-3-3-3-3-3-3--5-5-5-5-5-5-5-5--5-5-5-5-5-5-5-5--|

Chorus
G--------------------------------------------------------------------------|
D--------------------------------------------------------------------------|
A----------5-5-5-5-----------5-5-5-5------------5-5-5-5-----------5-5-5-5--|
E-3-3-3-3-----------5-5-5-5------------3-3-3-3-----------5-5-5-5-----------|



    

G-----------------------------------------|
D-----------------------------------------|
A----------5-5-5-5------------------------|
E-3-3-3-3-----------5-5-5-5--7-7-7-7-7-7--|

G---------------------------------------------|
D---------------------------------------------|
A----5-----5-5-----------5-5-5-5-----------5--|
E-3-----5-------3-3-3-3-----------5-5-5-5-----|

Verse 2
G-------------------------------------------------------------------------|
D-------------------------------------------------------------------------|
A----------------------------5-5-5-5-----------------------------5-5-5-5--|
E-5-5-5-5-5-5-5-5--3-3-3-3------------5-5-5-5-5-5-5-5--3-3-3-3------------|

G---------------------------------------------------------------------|
D---------------------------------------------------------------------|
A-2-2-2-2-2-2-2-2-----------------------------------------------------|
E------------------3-3-3-3-3-3-3-3--5-5-5-5-5-5-5-5--5-5-5-5-5-5-5-5--|

Chorus 2
G--------------------------------------------------------------------------|
D--------------------------------------------------------------------------|
A----------5-5-5-5-----------5-5-5-5------------5-5-5-5-----------5-5-5-5--|
E-3-3-3-3-----------5-5-5-5------------3-3-3-3-----------5-5-5-5-----------|

G-----------------------------------------|
D-----------------------------------------|
A----------5-5-5-5------------------------|
E-3-3-3-3-----------5-5-5-5--7-7-7-7-7-7--|

G---------------------------------------------|
D---------------------------------------------|
A----5-----5-5-----------5-5-5-5-----------5--|
E-3-----5-------3-3-3-3-----------5-5-5-5-----|

Solo
G-------------------------------------------------------------------------|
D-------------------------------------------------------------------------|
A----------------------------5-5-5-5-----------------------------5-5-5-5--|
E-5-5-5-5-5-5-5-5--3-3-3-3------------5-5-5-5-5-5-5-5--3-3-3-3------------|

G-----------------------------------------------------------------------|
D-----------------------------------------------------------------------|
A-2-2-2-2-2-2-2-2----------------------------5-5-5-5-----------5-5-5-5--|
E------------------3-3-3-3-3-3-3-3--3-3-3-3-----------5-5-5-5-----------|

G-------------------------------------|
D-------------------------------------|
A----------5-5-5-5-----------5-5-5-5--|
E-3-3-3-3-----------5-5-5-5-----------|

Verse 3
G-------------------------------------------------------------------------|
D-------------------------------------------------------------------------|
A----------------------------5-5-5-5-----------------------------5-5-5-5--|
E-5-5-5-5-5-5-5-5--3-3-3-3------------5-5-5-5-5-5-5-5--3-3-3-3------------|

G---------------------------------------------------------------------|
D---------------------------------------------------------------------|
A-2-2-2-2-2-2-2-2-----------------------------------------------------|
E------------------3-3-3-3-3-3-3-3--5-5-5-5-5-5-5-5--5-5-5-5-5-5-5-5--|

Chorus 3
G--------------------------------------------------------------------------|
D--------------------------------------------------------------------------|
A----------5-5-5-5-----------5-5-5-5------------5-5-5-5-----------5-5-5-5--|
E-3-3-3-3-----------5-5-5-5------------3-3-3-3-----------5-5-5-5-----------|

G-----------------------------------------|
D-----------------------------------------|
A----------5-5-5-5------------------------|
E-3-3-3-3-----------5-5-5-5--7-7-7-7-7-7--|

G|-------------------------------------|
D|-------------------------------------|   X2
A|-----------5-5-5-5-----------5-5-5-5-|
E|--3-3-3-3-----------5-5-5-5----------|
 ..............p.m.....................

G|-------------------------------------|
D|-------------------------------------|
A|-----------5-5-5-5-----------5-5-5-5-|
E|--3-3-3-3-----------5-5-5-5----------|

Outro
G-----------------|
D-----------------|
A----5-----5-5----|
E-3-----5---------|

Close panel

Help Rate This Tab by Voting Up or Down

Vote Up Vote Down
Rating: -1 +1

Other Songs Like This

x

Copyright © 2018