Song: Smile So Wide Bass

Band: Bag Of Toys

Rating: -1 +1 Views: 64

-------------------------------------------------------------------------------
			     SMILE SO WIDE - Bag of Toys
-------------------------------------------------------------------------------

Tabbed By : Jared Kent
e-mail: JSkellington90@cox.net



    

Tuning: EADG

Not 100% on the Chorus if you figure out my mistakes in it email me, I'll update it.

Intro/Main Riff: (0:00) (x6)



    

G|-----------------------|
D|-----------------------|
A|--5---5-3---3-------5--|
E|--------------3---3----|

Pre Chorus: (0:28)

G|----------------------|
D|----------------------|
A|--5-5--3-3-------5-5--|
E|------------3-3-------|

G|----------------------|
D|----------------------|
A|--5-5--3-3------------|
E|------------3~~-------|

Chorus: (0:38) (x2)

G|------------------------------------------|
D|---------------------3--------------------|
A|--/5-5-5-5-5-3-3-3p0-----------5-5-55-----|
E|-----------------------3-3-3-3--------33--|

G|--------------------------|
D|------------------5~---5~-|
A|--5-5-5-5-3-3-3--5--------|
E|----------------3---------|

Main Riff: (0:57) (x5)

G|-----------------------|
D|-----------------------|
A|--5---5-3---3-------5--|
E|--------------3---3----|

Pre Chorus: (1:22)

G|----------------------|
D|----------------------|
A|--5-5--3-3-------5-5--|
E|------------3-3-------|

G|----------------------|
D|----------------------|
A|--5-5--3-3-------5-5--|
E|------------3-3-------|

G|----------------------|
D|----------------------|
A|--5-5--3-3------------|
E|------------3~~-------|

Chorus: (1:36) (x2)

G|------------------------------------------|
D|---------------------3--------------------|
A|--/5-5-5-5-5-3-3-3p0-----------5-5-55-----|
E|-----------------------3-3-3-3--------33--|

G|--------------------------|
D|------------------5~---5~-|
A|--5-5-5-5-3-3-3--5--------|
E|----------------3---------|

Guitar Solo/Main Riff: (1:55) (x4)

G|-----------------------|
D|-----------------------|
A|--5---5-3---3-------5--|
E|--------------3---3----|

Bridge: (2:14)

G|--------------------|
D|--------------------|
A|--5~-------(5)------|
E|--------------------|

(2:21)
G|-------------|
D|-------------|
A|--3---3------|
E|-------------|

Pre Chorus (2:24)

G|----------------------|
D|----------------------|
A|--5-5--3-3-------5-5--|
E|------------3-3-------|

G|----------------------|
D|----------------------|
A|--5-5--3-3------------|
E|------------3~~-------|

Chorus: (2:33) (x2)

G|------------------------------------------|
D|---------------------3--------------------|
A|--/5-5-5-5-5-3-3-3p0-----------5-5-55-----|
E|-----------------------3-3-3-3--------33--|

G|--------------------------|
D|------------------5~---5~-|
A|--5-5-5-5-3-3-3--5--------|
E|----------------3---------|

Main Riff: (2:53) (x2)

G|-----------------------|
D|-----------------------|
A|--5---5-3---3-------5--|
E|--------------3---3----|

Outro: (3:01)

G|------------------------------------|
D|------------------------------------|
A|--5-5-5-5-3-3-3-3---------5-5-5-5---|  (x2)
E|------------------3-3-3-3------6-6--|

G|-------------------------|
D|-------------------------|
A|--5-5----3-3--------x-5--|
E|----------------3-3------|



| /  slide up
| \  slide down
| h  hammer-on
| p  pull-off
| ~  vibrato
| +  harmonic
| x  Mute note
===============================================================================

Close panel

Help Rate This Tab by Voting Up or Down

Vote Up Vote Down
Rating: -1 +1

Other Songs Like This

x

Copyright © 2018