Song: In Fear Of Fear Bass

Band: Bauhaus

Rating: -1 +1 Views: 240

"In Fear of Fear" by Bauhaus (from the album "Mask")
====================================================
tabbed by Jason Miller (jasoncm@juno.com)
comments, corrections, etc. are welcome




    

Intro (pop on the first two notes):

G|--7-7------------------------------
D|----------------------0-3-3-2-2-0--
A|--------------0-3-3-3--------------
E|------0-3-3-3----------------------

Main (okay, so it's the same damn thing):



    

G|--7------------------------------
D|--------------------0-3-3-2-2-0--
A|------------0-3-3-3--------------
E|----0-3-3-3----------------------

There are some variations on this bassline
throughout the song, but all basically use
the same notes, just in different order,
mostly on the A string.

Close panel

Help Rate This Tab by Voting Up or Down

Vote Up Vote Down
Rating: -1 +1

Other Songs Like This

x

Copyright © 2019