Song: Motorcycle Daydream

Band: Bedroom Eyes
Composed By: Patrik Remann, Ronnie Hagstedt

Rating: -1 +1 Views: 89



    

																				Bedroom Eyes ~ Motorcycle Daydream

From the Embrace In Stereo EP.

Chords



    

A    [x02220]
F#m  [244222]
D    [xx0232]
Bm   [x24432]
E    [022100]

Intro:

Guitar 1 - Capo 7: 

e|-------2----0---3---2---0-2-0---------2---0---3---2---0-2-0---------------|
B|---------3----3---3---3-------3---------3---3---3---3-------3-------------|  
G|------------------------------------0-------------------------------------|  x2
D|---0----------------------------------------------------------------------|

e|-------2----0---3---2---0-2-0---------2---0---5---3---2-3-2---------------|
B|---------3----3---3---3-------3---------3---3---3---3-------3-------------|  
G|------------------------------------0-------------------------------------| 
D|---0----------------------------------------------------------------------|

Guitar 2 - A F#m D Bm E


Verse:
A               F#m
I will state my case
          D

Yes, I've wasted all these days
            Bm                E            A

Just letting all my hopes mislead me in a haze
        F#m
A sad clich

View Albums that This Song Appears On...

  • The Long Wait Champion

    Label: A West Side Fabrication Song Duration on Album: 2:54

    Release Date: 2010

Close panel

Help Rate This Tab by Voting Up or Down

Vote Up Vote Down
Rating: -1 +1

Other Songs Like This

x

Copyright © 2019