Song: Samba Rio De Janeiro

Band: Bellini

Rating: -0 +0 Views: 165



    

																				Version 1

E|----------------------|
B|----------------------|
G|----------------------|
D|---------------2------|
A|-0-3--0-5--3-5---3-0--|
E|----------------------|




    

E|----------------------|
B|-------------0--------|
G|-------2-0-2---0------|
D|-----2-----------2----|
A|-0-3------------------|
E|----------------------|


E|----------------------|
B|----------------------|
G|---2------------------|
D|-2---2-------2--------|
A|-------5-3-5---3-0----|
E|----------------------|


E|----------------------|
B|---1------------------|
G|-2---2-2-0-2-4-0-2----|
D|----------------------|
A|----------------------|
E|----------------------|


Version 2 (better version)

E|----------------------|
B|---------------5------|
G|---5----7--5-7---5----|
D|-7----7------------7--|
A|----------------------|
E|----------------------|

E|-------5-3-5-7-3------|
B|-----5-----------5----|
G|---5------------------|
D|-7--------------------|
A|----------------------|
E|----------------------|

E|---5------------------|
B|-5---5-------5--------|
G|-------7-5-7---5------|
D|-----------------7----|
A|----------------------|
E|----------------------|

E|-5-8-5-5-3-5-7-3-5----|
B|----------------------|
G|----------------------|
D|----------------------|
A|----------------------|
E|----------------------|


This is my second tab (did both by ear) ;)

Close panel

Help Rate This Tab by Voting Up or Down

Vote Up Vote Down
Rating: -0 +0

Other Songs Like This

x

Copyright © 2017