Song: Another Lonely Day

Band: Ben Harper
Composed By: Ben Harper

Rating: -0 +0 Views: 120



    

																				Ben Harper
Another Lonely Day


Verse:    Bb, Gm, Dm, F maj



    

----------------------------------------------------------------------------------------------------|
-------------------3----------------3---------------------------------------------6--------------6--|
-------------------3----------------3------------3-------------------------------7--------------7---|
-------------------3-----------3-----------------3-------------------------------7---------7--------|
--------------1-----------1----------------------5-p-3-h-5-p-3-h-5-----5----------5-----------------|
--1---3----------------------------------3----------------------------------------------------------|


--------------------------------------------------|
----------------------------------3---------------|
--------2------------------------3--------repeat--|
--------3------------------------3----------------|
--------3-------------------1---------------------|
--1-------------1----3----------------------------|

Bridge/Chorus:    D#, Gm, F maj

-----------------------------------------------------------------------------------------------------|
-------------------8----------------8----------------------------------------------------------------|
-------------------8----------------8------------3---------------3-----------2----------2------------|
-------------------8------------8----------------5---------------5-----------3----------3------------|
--------------6-----------6----------------------5-----------5---------------3----------3------------|
--1----3-----------------------------------3------------3---------------1----------1---------1----3--|

This song is tabbed out in another key, but listening to the song and playing along with 
I found that it's lower down, key of F I think, although the chord structure is 
starting at C and going to Am and so on... it's too high a key. Try this one out

Word

B-Man

View Just Lyrics...

Yes indeed I'm alone again
And here comes emptiness crashing in
It's either love or hate
I can't find in between
'Cause I've been with witches
And I have been with a queen

It wouldn't have worked out anyway
So now it's just another lonely day
Further along we just may
But for now it's just another lonely day

Wish there was something I could say or do
I can resist anything but the temptation from you
But I'd rather walk alone
Than chase you around
I'd rather fall myself
Than let you drag me on down

It wouldn't have worked out anyway
And now it's just another lonely day
Further along we just may
But for now it's just another lonely day

Yesterday seems like a life ago
'Cause the one I love
Today I hardly know
You I held so close in my heart oh dear
Grow further from me with every fallen tear

It wouldn't have worked out anyway
So now it's just another lonely day
Further along we just may
But for now it's just another lonely day
For now it's just another lonely day
For now it's just another lonely day

View Albums that This Song Appears On...

  • Fight for Your Mind

    Genre: Pop/Rock Label: Virgin Song Duration on Album: 3:43 Album Duration: 01:07:57

    Release Date: 1995

    Moods: Brooding, Carefree, Earnest, Gentle, Intimate, Ironic, Literate, Organic, Stylish, Theatrical, Wistful

    Styles: Adult Alternative Pop/Rock, Alternative/Indie Rock, Jam Bands, Contemporary Blues

    Themes: Empowering, Politics/Society, Revolutionary

  • CD Box Collection

    Genre: Pop/Rock Label: Virgin Song Duration on Album: 3:43 Album Duration: 02:50:14

    Release Date: November 23, 1999

    Styles: Adult Alternative Pop/Rock, Alternative/Indie Rock, Jam Bands

  • Boxed Set Collection

    Genre: Pop/Rock Label: Virgin Song Duration on Album: 3:43 Album Duration: 02:54:28

    Release Date: 2000

    Styles: Adult Alternative Pop/Rock, Alternative/Indie Rock, American Trad Rock, Contemporary Singer/Songwriter, Jam Bands

Close panel

Help Rate This Tab by Voting Up or Down

Vote Up Vote Down
Rating: -0 +0

Other Songs Like This

x

Copyright © 2017