Song: Crazy Girls

Band: Bethany Joy Lenz

Rating: -1 +1 Views: 52

-------------------------------------------------------------------------------
			     SONG NAME - Band Name
-------------------------------------------------------------------------------
Tabbed by: IceCreamKitten
Email: IceCreamKitten@Gmail.com

Tuning: Standard 
       (capo on 2nd fret)



    

        x = palm mute





    

                      THIS IS A PRETTY EASY SONG TO PLAY, HOPE THIS IS CLEAR
                      ENOUGH, AND JUST LISTEN TO THE SONG TO GET THE BEAT DOWN

(Intro + 2 verses)

       G           G               C             C              G          
e|------3---x-----------3--x-----------3---x---------3---x--------3----x-----|
B|------3---x-----------3--x-----------3---x---------3---x--------3----x-----|
G|------0---x-----------0--x-----------0---x---------0---x--------0----x-----|
D|----------x--------------x--------2------x-------2-----x-------------x-----|
A|----------x-------2------x-----3---------x----3--------x-----2-------x-----|
E|---3------x----3---------x---------------x-------------x---3---------x-----|
                                                                                      x5
       G           D

e|--------3--x----------3--3--3----------------------------------------------|
B|--------3--x----------2--2--2----------------------------------------------|
G|--------0--x----------3--3--3----------------------------------------------|
D|-----------x---------------------------------------------------------------|
A|-----2-----x-----0---------------------------------------------------------|
E|---3-------x---------------------------------------------------------------|    




(Bridge)

"and now this whole world..."

           G              C             G                D

e|--------------------------------------------------------------------------|
B|----3--3--3--3-----3--3--3--3-----3--3--3--3--------3--3--3--3------------|
G|----------------------------------------------------2--2--2--2------------|    
D|--------------------------------------------------------------------------|
A|----2--2--2--2-----3--3--3--3-----2--2--2--2--------0--0--0--0------------|
E|--------------------------------------------------------------------------|


           G              C             G                D

e|-------------------------------------------------------2------------------|
B|----3--3--3--3-----3--3--3--3-----3--3--3--3-----------3------------------|
G|-------------------------------------------------------2------------------|    
D|-------------------------------------------------------0------------------|
A|----2--2--2--2-----3--3--3--3-----2--2--2--2-----------0------------------|
E|--------------------------------------------------------------------------|


(Verse)

"Well I can't get myself together.."
      
       G           G               C             C              G          
e|------3---x-----------3--x-----------3---x---------3---x--------3----x-----|
B|------3---x-----------3--x-----------3---x---------3---x--------3----x-----|
G|------0---x-----------0--x-----------0---x---------0---x--------0----x-----|
D|----------x--------------x--------2------x-------2-----x-------------x-----|
A|----------x-------2------x-----3---------x----3--------x-----2-------x-----|
E|---3------x----3---------x---------------x-------------x---3---------x-----|      X2

       G           D

e|--------3--x----------2----------------------------------------------------|
B|--------3--x----------3----------------------------------------------------|
G|--------0--x----------2----------------------------------------------------|
D|-----------x----------0----------------------------------------------------|
A|-----2-----x----------0----------------------------------------------------|
E|---3-------x---------------------------------------------------------------|


(Bridge)

"And now this whole world..."
           G              C             G                D

e|---------------------------------------------------------------------------|
B|-----3--3--3--3-----3--3--3--3-----3--3--3--3--------2--2--2--2------------|
G|-----------------------------------------------------3--3--3--3------------|    
D|---------------------------------------------------------------------------|
A|-----2--2--2--2-----3--3--3--3-----2--2--2--2--------0--0--0--0------------|
E|---------------------------------------------------------------------------|


           G              C             G                D

e|-----------------------------------------------------2--2--2--2------------|
B|-----3--3--3--3-----3--3--3--3-----3--3--3--3--------3--3--3--3------------|
G|-----------------------------------------------------2--2--2--2------------|    
D|-----------------------------------------------------0--0--0--0------------|
A|-----2--2--2--2-----3--3--3--3-----2--2--2--2--------0--0--0--0------------|
E|---------------------------------------------------------------------------|


(Chorus)

"Oh, will you wait..."

           G                        C                  Am           
e|---3---3---x---3---3-------3---3---x---3--3-------0--0--x---0--0-----------|
B|---3---3---x---3---3-------3---3---x---3--3-------1--1--x---1--1-----------|
G|---0---0---x---0---0-------0---0---x---0--0-------2--2--x---2--2-----------|
D|---0---0---x---0---0-------2---2---x---2--2-------2--2--x---2--2-----------|
A|---2---2---x---2---2-------3---3---x---3--3-------0--0--x---0--0-----------|
E|---3---3---x---3---3---------------x--------------------x------------------|

           D                        G                  C

e|---2---2---x---2---2-------3---3---x---3---3------3---3--x--3---3----------|
B|---3---3---x---3---3-------3---3---x---3---3------3---3--x--3---3----------|
G|---2---2---x---2---2-------0---0---x---0---3------0---0--x--0---0----------|
D|---0---0---x---0---0-------0---0---x---0---0------2---2--x--2---2----------|
A|---0---0---x---0---0-------2---2---x---2---2------3---3--x--3---3----------|
E|-----------x---------------3---3---x---3---3-------------x-----------------|

           Am                 D

e|------0----0------------2--------------------------------------------------|
B|------1----1------------3--------------------------------------------------|
G|------2----2------------2--------------------------------------------------|
D|------2----2------------0--------------------------------------------------|
A|------0----0------------0--------------------------------------------------|
E|---------------------------------------------------------------------------|




The rest is pretty much the same, you can figure it out



Oh, and when just before she sings: "well I'd never though I'd say.." theres this 
in the background:

e|---------------------------------------------------------------------------|
B|---------------------------------------------------------------------------|
G|---------------------------------------------------------------------------|
D|------------0---0oh2--0----------------------------------------------------|
A|---------2-----------------3--2--3--2--3--2--------------------------------|
E|---3--3--------------------------------------3-----------------------------|


                                  Good luck =]



| /  slide up
| \  slide down
| h  hammer-on
| p  pull-off
| ~  vibrato
| +  harmonic
| x  Mute note
===============================================================================

Close panel

Help Rate This Tab by Voting Up or Down

Vote Up Vote Down
Rating: -1 +1

Other Songs Like This

x

Copyright © 2018