Song: Crazy In Love Fifty Shades Of Grey Version

Band: Beyonce Knowles

Rating: -0 +0 Views: 37

Capo on *5th fret*

the pattern of the entire song:



    

        Am           F               Dm            Am

e: ----0-----0---------------------1-----1--------0-----0----
b: ----1-----1-------1-----1-------3-----3--------1-----1----
G: ----2-----2-------2-----2-------2-----2--------2-----2----
D: ----2-----2-------3-----3----0-----0-----------2-----2----
A: -0-----0------------------------------------0-----0-------
E: ---------------1-----1------------------------------------




    

intro:

        Am           F               Dm          Am     Ammaj7

e: ----0-----0---------------------1-----1--------0----------
b: ----1-----1-------1-----1-------3-----3--------1-----1----
G: ----2-----2-------2-----2-------2-----2--------2-----1----
D: ----2-----2-------3-----3----0-----0-----------2-----2----
A: -0-----0------------------------------------0--------0----
E: ---------------1-----1------------------------------------

(i'll write every chord once but play it twice like in the intro ^ )

Am
Uh-oh, uh-oh, uh-oh, oh no no.
F
Uh-oh, uh-oh, uh-oh, oh no no.
Dm
Uh-oh, uh-oh, uh-oh, oh no no.
Am
Uh-oh, uh-oh, uh-oh, oh no no.

     Am
You got me again,
     F
so crazy my baby
      Dm
Im not myself lately
     Am
Im foolish I dont do this

         Am
Ive been playing myself
        F
Lately I dont care
             Dm
Baby your love's got the best of me
       Am
your love's got the best of me

         Am
Baby your love's got the best of me
            F
Baby you're making a fool of me
               Dm
You got me swung and I dont care whose he is.
               Am
'cause baby you got me

got me, you got me, you got me..


*(regular version lyrics with few changes + no second verse)*


Am
I look and stare so deep in your eyes
F
I touch on you more and more every time
Dm
When you leave I'm beggin you not to go
Am
Call your name two, three times in a row
Am
Such a funny thing for me to try to explain
F
How I'm feeling and my pride is the one to blame
Dm
Yeah, I still don't understand
Am
Just how your love can do what no one else can


Am
Got me looking so crazy right now
        F
Your love's got me looking so crazy right now
Dm                                    
Got me lookin' so crazy right now
       Am
Your touch got me looking so crazy right now
Am
Hoping you page me right now
     F
Your kiss got me hoping you save me right now
Dm
Looking so crazy your love's got me looking
          Am
Got me looking so crazy in lo-oh-ooove


Am
Got me lookin' so crazy right now
      F
Your love's got me looking so crazy right now
Dm                                    
Got me looking so crazy right now
       Am
Your touch got me looking so crazy right now
Am
Got me hoping you page me right now
     F
Your kiss got me hoping you save me right now
Dm
Looking so crazy your love's got me looking
          Am
Got me looking so crazy in lo-oh-ooooooove

*silence*

Am
Uh-oh, uh-oh, uh-oh, oh no no.
F
Uh-oh, uh-oh, uh-oh, oh no no.
Dm
Uh-oh, uh-oh, uh-oh, oh no no.

*strum once*
Am
Uh-oh, uh-oh, uh-oh, oh no no.



I hope you enjoy! if you did please rate! 
*I wrote the lyrics of this version's beginning by ear, so if i got mistakes please write in the comments.:)

Close panel

Help Rate This Tab by Voting Up or Down

Vote Up Vote Down
Rating: -0 +0

Other Songs Like This

x

Copyright © 2017