Song: Toys Toys Toys Choke Toys Toys Toys Bass

Band: Biffy Clyro

Rating: -1 +1 Views: 100

Song:     Toys Toys Toys Choke Toys Toys Toys
Artist:   Biffy Clyro
Album:    The Vertigo of Bliss
Tuning:   D A D G

| ~ hold | / slide-up |  slide-down | h hammer-on | p pull-off |



    

On the intro only guitar and drums are playing.
But If you want, you can play with them like this:

INTRO:

------------------|---------------------------------|
------------------|---------------------------------|
--3-3-------------|---------------------------------|
------5-5----3~---|--7777-7777-0000-0000-3333-3333--|



    

The bass enters a little bit later in this guitar and bass - Dialog.
If you can, use a light distortion-effect.

GUITAR/BASS-DIALOG:

---------------|---(10's)------|---(12's)-------|
---------------|---------------|----------------|
---------------|---------------|----------------|
--3/-8888-777--|--10101010-000-|--12121212-000--|

---------------------| |-------------------|
---------------------| |-------------------|
---------------------| |--3-3--------------|
--3/--88-88-88-88---| |------5-5----3~-----|

only guitar and drums (if you want, play the intro again) then:

GUITAR/BASS-DIALOG 2:

---------------|---(10's)------|---(12's)-------|
---------------|---------------|----------------|
---------------|---------------|----------------|
--3/-8888-777--|--10101010-000-|--12121212-000--|

----------------| |---------------|R|
----------------| |---------------|E|
----------------| |------0--------|S|
--3/--88-88-88--| |--0-2---0-(00)-|T|

If you want, you can make some effect-sounds...

SCREAM-PART:

|--------------| |------|
|--------------| |------|
|------0-------| |------|
|--0-2---0-00~-| |--345-|

PRE-CHORUS:

-------------|---------|-----------------|-------------------------------------|
-------------|---------|-----------------|-------------------------------------|
--0--00-000--|-000-000-|-----------------|-------------------------------------|
-------------|---------|-33--33--33--33--|--00-----00-0----0/3--3-3/5-555-12---|

      -------|---------|------------------|------------------------------------|
      -------|---------|------------------|------------------------------------|
      --0000-|-0000-00-|------------------|------------------------------------|
      -------|---------|-33--33-3-33-3333-|-00-----00-0----0/3--3-3/5-555-4----|

CHORUS:

-----------------|------------------|------------------|---------------------|
-----------------|------------------|------------------|---------------------|
-----------------|------------------|-3--3--3-33-333-3-|-0-0000-0-0000-------|
0--0--0-00-000-0-|-3--3--3-33-333-3-|------------------|--------------3~-----|

BRIDGE:
(ca. 3:32)

--------------|-----------------|---------------|---------------------|
--------------|-----------------|---------------|---------------------|
--8-7-5---3-5-|-----------------|--------8-7----|---------------------|  3x
--------0-----|-12-10-0-0-10-10-|--8-8-8-----10-|--88---88---88---88--|

--------------|-----------------|---------------|----------------------|
--------------|-----------------|---------------|----------------------|
--8-7-5---3-5-|-----------------|--------8-7----|----------------------|
--------0-----|-12-10-0-0-10-10-|--8-8-8-----10-|--88---88---88-345----|

PRE-CHORUS

CHORUS

CHORUS_OUTRO:

--------------------------------------|----------------------------------------|
--------------------------------------|----------------------------------------|
--------------------------------------|----------------------------------------|
--0---0---0---0---0---0---8-7-8-10---|--0---0---0---0---0---0---8-7-8-10-------|

------------------|
------------------|
------------------|
--0---0---0---0---|

BRIDGE 2A:
(ca. 4:14)

----------------|--------------|--------------------|
----------------|--------------|--------------------|
----8-----------|-------8-7----|--------------------|
--0---0-0-10-10-|-8-7-8-----10-|-88---88---88---88--|

--------------|-----------------|---------------|---------------------|
--------------|-----------------|---------------|---------------------|
--8---5-------|-----------------|--------8-7----|---------------------|
----0---0-0-0-|-10-12-0-0-10-10-|--8-7-8-----10-|--88---88---88---88--|

BRIDGE 2B:

-----------------|------------------|------------|--------------------|
-----------------|------------------|------------|--------------------|
--8-7-5----------|------------------|-------8-7~-|--------------------|
--------0-10-12~-|-12-12-0-0-10-10~-|-8h7h8------|-88---88---88---88--|

-----------------|------------------|------------|--------------------|
-----------------|------------------|------------|--------------------|
--8--------------|-----8------------|-------8-7~-|--------------------|
----0-10-12-0-0~-|---8---0-0-10-10~-|-8h7h8------|-88---88---88---88--|

OUTRO:

-----------------|-------------------|---------------|--------------------|
-----------------|-------------------|---------------|--------------------|
--8--------------|-------------------|-------7-------|--------------------|
----0-10/12-12-0-|-0-10/12-0-0-10-10-|-8-7-8---10-10-|-88---88---88---88--|

|------------------------|
|----------9-10-11-12----|
|-10-11-12---------------|
|------------------------|

Enjoy!

Close panel

Help Rate This Tab by Voting Up or Down

Vote Up Vote Down
Rating: -1 +1

Other Songs Like This

x

Copyright © 2019