Song: Some Kind Of Wizard Bass

Band: Biffy Clyro
Composed By: Biffy Clyro

Rating: -1 +1 Views: 95



    

																				Riff

g]--------------------------|
d]--------------------------|
a]--------------------------|
d]--2--2-2--2--2-2--2--2-2--|

Verse



    

g]----------|
d]----5---4-|
a]--3---2---|
d]----------|

Riff

Repeat

Pre-Chorus

g]-------------------------|
d]-------------------------|
a]-5--5-5--5--5-5--5--5-5--|
d]-------------------------|

g]-----------------------------|
d]-------------------------7-6-|
a]-5--5-5--5--5-5--5--5-5------|
d]-----------------------------|

g]-----------------------------|
d]-----------------------------|
a]-5--5-5--5--5-5--5--5-5------|
d]-------------------------4-0-|

Chorus

g]----------------------------------------------------------------------|
d]----------------------------------------------------------------------|
a]--4-4-4-4-4-4-4-4-------------------------------0-0-0-0-0-0-0-0-------|
d]-----------------4-4-4-4-4-4-4-4-0-0-0-0-0-0-0-0----------------0-0-0-|

g]---------------------------------|
d]---------------------------------|
a]--4-4-4-4-4-4-4-4----------------|
d]-----------------4-4-4-4-4-4-4-4-|

g]--------------------------|
d]--------------------------|
a]--------------------------|
d]--0--0-0--0--0-0--0--0-0--|

Break

g]-----------------|
d]-5-----4-----5---|
a]---3-2---2-3---5-|
d]-----------------|

Riff
Verse
Riff
Verse
Riff

Bridge

g]------------------------------------------------------------------------------|
d]------------------------------------------------------------------------------|
a]---------------------------5--5-5--5--5-5--5--5-5-----------------------------|
d]--4--5-5--5--5-5--5--5-7-----------------------------2--2-2--2--2-2--2--2-2-0-|

g]--------------------------------------------------------------------------|
d]--------------------------------------------------------------------------|
a]--------------------------------------------------5--5-5--5--5-5--5--5-5--|
d]--2--2-2--2--2-2--2--2-2--4--5-5--5--5-5--5--5-7--------------------------|

g]--------------------------|
d]--------------------------|
a]--------------------------|
d]--2--2-2--2--2-2--2--2-2--| x2

g]----------------------------------------------------------------------------|
d]----------------------------------------------------------------------------|
a]--------------------------7--7-7--7--7-7--7--7-7----------------------------|
d]--2--2-2--2--2-2--2--2-2----------------------------2--2-2--2--2-2--2--2-2--|

g]--------------------------|
d]---------------2-2-----2--|
a]------2-2------------2----|
d]--2-2-----2-2------2------| x2

g]---------------|
d]---------------|
a]---------------|
d]--2-2--2-2--2--|

Pre-Chorus

g]-----------------------------|
d]-------------------------7-6-|
a]-5--5-5--5--5-5--5--5-5------|
d]-----------------------------|

g]-----------|
d]-----------|
a]-5--5-5*---|
d]-----------|

Chorus

Interlude

g]-----------------------------|
d]-----------------------------|
a]--2-2--4-4-4-4-4-4-4-4--2-2--| x2
d]-----------------------------|

g]-----------------------------|
d]-----------------------------|
a]--2-2--7-7-7-7-7-7-7-7--2-2--|
d]-----------------------------|

Repeat Interlude

g]--------------|
d]--------------|
a]--2-2-2-2--2--|
d]--------------|

Fill

g]--------------|
d]--------------|
a]---5---5---5--|
d]-0---0---0----|

g]-----------------------------------|
d]-----------------------------------|
a]--0-0-0-0-0-0-0-0------------------|
d]------------------2-2-2-2-2-2-2-2--|

g]--------------|
d]--------------|
a]---5---5---5--|
d]-0---0---0----|

Outro

g]-------|
d]-------|
a]-----5-|
d]-3-5---|

g]---------------|
d]---------------|
a]-------------5-|
d]-0-0-0-0-3-5---|

g]---------------|
d]---------------|
a]-3-3-3-3-----5-|
d]---------3-5---|

g]---------------|
d]---------------|
a]-------------5-|
d]-5-5-5-5-3-5---|

g]---------------|
d]---------------|
a]-------------5-|
d]-0-0-0-0-3-5---|

g]---------------|
d]-----0---------|
a]---0---------5-|
d]-0-------3-5---|

g]-----5---------|
d]---5-----------|
a]-3-----------5-|
d]---------3-5---|

g]---------------|
d]-----5---------|
a]---5---------5-|
d]-5-------3-5---|

g]---------------|
d]---0-----------|
a]---------------|
d]-0---0---------|

View Albums that This Song Appears On...

  • Infinity Land

    Genre: Pop/Rock Label: Beggars Banquet Album Duration: 01:03:09

    Release Date: October 4, 2004

    Moods: Lively, Strong

    Styles: Alternative/Indie Rock, Punk Revival, Punk-Pop

Close panel

Help Rate This Tab by Voting Up or Down

Vote Up Vote Down
Rating: -1 +1

Other Songs Like This

x

Copyright © 2019