Song: Kali Is The Sweethog

Band: Big Dumb Face

Rating: -0 +0 Views: 85



    

																				Big Dumb Face
Kali is the sweethog

James Robinson, Oxford boy

e|------------------------------------- 
B|------------------------------------- 
G|------------------------------------- 
D|-6-6-6-6--7--9--9-9-9-9-9-9-9-------- 
A|-6-6-6-6--7--9--9-9-9-9-9-9-9-------- 
E|-4-4-4-4--5--7--7-7-7-7-7-7-7-------- 



    

e|------------------------------------- 
B|------------------------------------- 
G|-----6------------------------------- 
D|---6-6------4------2------6---------- 
A|--4--4----4-4----2-2----6-6---------- 
E|--------2---2--0---0--4---4---------- 

e|--------------------------------------- 
B|--------------------------------------- 
G|-------------------------11--------13-- 
D|------11--------14----11-11-----13-13-- 
A|---11-11-----14-14--9-----9--11----11-- 
E|-9-----9--12----12--------------------- 
[Mount the sweethog] part 

e|------------------------------------------ 
B|------------------------------------------ 
G|-xx-6-xx-6-------------------------------- 
D|-xx-6-xx-6-xx-4-xx-4-xx-2-xx-2-xx-6-xx-6-- 
A|-xx-4-xx-4-xx-4-xx-4-xx-2-xx-2-xx-6-xx-6-- 
E|-----------xx-2-xx-2-xx-0-xx-0-xx-4-xx-4-- 
This is the heavy distorted part.

Close panel

Help Rate This Tab by Voting Up or Down

Vote Up Vote Down
Rating: -0 +0

Other Songs Like This

x

Copyright © 2017