Song: Just The Two Of Us

Band: Bill Withers

Rating: -1 +1 Views: 189

E|-------------------------------------------|
B|---9----9---9---9---9---9----6----6--------|
G|--10---10---9---9---8---8----7----7--------|
D|--10---10---8---8------------8----8--------|
A|- -------------------8---8-----------------|
E|---9--------8----------------6-------------|

E|-------------------------------13---------|
B|---9----9---9---9---9---------13----------|
G|--10---10---9---9---8-------13------------|
D|--10---10---8---8-------------------------|
A|- -------------------8--------------------|
E|---9--------8-----------------------------|

Close panel

Help Rate This Tab by Voting Up or Down

Vote Up Vote Down
Rating: -1 +1

Other Songs Like This

x

Copyright © 2018