Song: Use Me Bass

Band: Bill Withers

Rating: -1 +1 Views: 237

Great Song- Play this tab throughout the whole song, but there are some breaks in the 
line when he is just singing by himself.

G|-----------------------------------------------|
D|-----------------------------------------------|
A|--5h7---5-6-7-5-6-7--7-5------------2-3-4-5----|
E|------0-------------------5-77-----------------|



    

The two 12s in there are hermonic notes. Then the other fill he plays is this.

G|---------------------------------12-12-----|
D|-------------------------------------------|
A|--5h7---5-6-7-5-6-7--7-5-------------------|
E|------0-------------------5-77-------------|

The two 12s at the end are hermonics.



    

Just listen to the groove and get the beat down.

Close panel

Help Rate This Tab by Voting Up or Down

Vote Up Vote Down
Rating: -1 +1

Other Songs Like This

x

Copyright © 2018