Song: Nightmares

Band: Billie The Vision And The Dancers

Rating: -1 +1 Views: 160



    

																				Song:   Nightmares
Album:  The World According to Pablo
Artist: Billie the Vision & the Dancers


Guitar 1



    

||------2-------------2-------|------2-----------------2---|
||----0----0--------2----2----|---------3----------------3-|
||-0---------0---2------------|----2------2----------------|
||-------------------------2--|-4-------------0--2/4-4-----|
||----------------------------|----------------------------|
||----------------------------|----------------------------|

Guitar 2

||----------------------------|----------------------------|
||--10------------------------|--10------------------------|
||--------11---9------9-11----|------11--9-----------------|
||----------------12-------12-|-------------12--9-----12---|
||----------------------------|--------------------12------|
||----------------------------|----------------------------|


Intro: G  A  D/F#  G


G              A    D/F#                  G

Close panel

Help Rate This Tab by Voting Up or Down

Vote Up Vote Down
Rating: -1 +1

Other Songs Like This

x

Copyright © 2019