Song: Diamond On A Landmine Bass

Band: Billy Talent 1000

Rating: -0 +0 Views: 30



    

																				tabbed by tony d

Intro:1x
G-------------------------------------|
D-------------------------------------|
A-----------2(ring)-------------------|
D-0(ring)------------4444444444444444-|
                                           After 2x
G-----------------------------------------|--------------|
D-----------------------------------------|--------------| Play 2x
A----------0-22222222---------------------|-------4-2-0--|
D-00000000------------2-444-444-2-444-444-|-4-6-7--------|

Verse:1x
G----------------|
D----------------| Play 3x
A-----22---------|
D-00------44--44-|



    

G-------------------------------------------------|
D-------------------------------------------------| Play 2x
A--------------0-22(ring)-------------------------|
D-00-0(ring)----------------2-44(ring)-2-44(ring)-|


Pre-Chorus:1x
G------------------------------------------------------------------------|
D------------------------------------------------------------------------|
A----------------------------------------------------2222-4444-5555-7777-|
D-0000000000000000-4444444444444444-7777777777777777---------------------|

Chorus:2x                                 After 2x
G-----------------------------------------|-------------|
D-----------------------------------------|-------------| Play 2x
A----------0-22222222---------------------|-------------|
D-00000000------------2-4444444-2-4444444-|-4-6-7-4-6-7-|

Verse:1x
Pre-Chorus:1x
Chorus:3x

3rd Bar of 2nd Chorus:1x
G---------------------------------------------------------------------------|
D---------------------------------------------------------------------------|
A----------0-22222222----------------------2222-4444-5555-7777-555555555555-|
D-00000000------------2-4444444-2-77777777----------------------------------|

Post-Chorus:1x
G----------------------------------------|
D--------------------------------| Play--| 2x
A----------------------------------------|
D-2--22--22--22--44--44--00--000---------|

G------------------------------------------------------------------------|
D------------------------------------------------------------------------|
A---------------------------------------2222-4444-5555-7777-555555555555-|
D-22--222--222--222--444--444--000--000----------------------------------|


Post-Bridge:1x
G-----------------------------------------------------------------------------------|
D-----------------------------------------------------------------------------------|
A-----------------------------------------------------------------------------------|
D-0(ring)--4(ring)--0(ring)--4(ring)-00-0--00-0--44-4--44-4--00-0--00-0--44-4--44-4-|

Pre-Chorus:1x
2nd Chorus:6x

Outro:1x
G---------|
D---------|
A---------|
D-0(ring)-|

Close panel

Help Rate This Tab by Voting Up or Down

Vote Up Vote Down
Rating: -0 +0

Other Songs Like This

x

Copyright © 2017