Song: Im Not Going To Teach Your Boyfriend How To Dance With You Bass

Band: Black Kids

Rating: -1 +1 Views: 121

Very Simple, mainly the same thing repeated over and over, listen to the song to get the rhythm.




    

Main Riff
G|--------------------|-------------------------|--------------------|-----------------|
D|-----10---10---10---|-------12----12----12----|--------------------|-----------------|
A|-8-8----8----8----8-|-10-10----10----10----10-|-----10---10---10---|-----7---7---7---|
E|--------------------|-------------------------|-8-8----8----8----8-|-5-5---5---5---5-|

Variation at end of song

G|--------------------|-------------------------|--------------------|---------------|
D|-----10---10---10---|-------12----12----12----|--------------------|---------------|
A|-8-8----8----8----8-|-10-10----10----10----10-|-----10---10---10---|---------------|
E|--------------------|-------------------------|-8-8----8----8----8-|-5---5---5---5-|



    

End on 

E|-5-5-5-5-5-5-|

Close panel

Help Rate This Tab by Voting Up or Down

Vote Up Vote Down
Rating: -1 +1

Other Songs Like This

x

Copyright © 2018