Song: Fluff

Band: Black Sabbath
Composed By: Black Sabbath

Rating: -0 +0 Views: 48

BY PHILIP SMITH

Black Sabbath - Sabbath, Bloody Sabbath (1974)



    

 Gtr.I
|------------2------------------2-------|----------2-----------------2-------|
|--------3------3------------3-----3----|-------0-----0-----------0-----0----|
|----2--------------2-----2-----------2-|----0-----------0-----0-----------0-|
|-0--------------------0----------------|-0-----------------0----------------|
|---------------------------------------|------------------------------------|
|---------------------------------------|------------------------------------|

 Gtr.I
|------------2------------------2-------|----------2-----------------2-------|
|--------3------3------------3-----3----|-------0-----0-----------0-----0----|
|----2--------------2-----2-----------2-|----0-----------0-----0-----------0-|
|-0--------------------0----------------|-0-----------------0----------------|
|---------------------------------------|------------------------------------|
|---------------------------------------|------------------------------------|
|				  	|	 			     |
|Gtr.II					|				     |
|---------------------------------------|------------------------------------|
|---------------------------------------|------------------------------------|
|---------------------------------------|------------------------------------|
|-4-5-7------------(7)-------------7/9--|------------------------------------|
|---------------------------------------|-7--------------(7)-----------------|
|---------------------------------------|------------------------------------|

 Gtr.I
|----------2-----------------2--------|----------2-----------------2-----3--|
|-------3-----3-----------3-----3-----|-------0-----0-----------0-----0-----|
|----2-----------2-----2-----------2--|----0-----------0-----0--------------|
|-0-----------------0-----------------|-0-----------------0-----------------|
|-------------------------------------|-------------------------------------|
|-------------------------------------|-------------------------------------|
|                                     |                                     |
|Gtr.II                               |                                     |
|-------------------------------------|-------------------------------------|
|-------------------------------------|-------------------------------------|
|-------------------------------------|-------------------------------------|
|-4-5-7------------(7)-----------7/9--|---------------------------------7-6-|
|-------------------------------------|-7----------------(7)----------------|
|-------------------------------------|-------------------------------------|



    

 Gtr.I
|------------3------------------3-------|----------3-----------------3-------|
|--------0------0------------0-----0----|-------2-----2-----------2-----2----|
|----0--------------0-----0-----------0-|----2-----------2-----2-----------2-|
|-2--------------------2----------------|-2-----------------2----------------|
|---------------------------------------|------------------------------------|
|---------------------------------------|------------------------------------|
|					|				     |
|Gtr.II                 		|	                             |
|---------------------------------------|------------------------------------|
|---------------------------------------|------------------------------------|
|---------------------------------------|------------------------------------|
|-5---------(5)--------7--------7/9-----|-7----------------(7)-----------7-6-|
|---------------------------------------|------------------------------------|
|---------------------------------------|------------------------------------|
|					|				     |
|Gtr.III				|				     |
|------0--------0--------0--------0-----|-------0-------0-------0-------0----|
|----0---0----0---0----0---0----0---0---|-----0---0---0---0---0---0---0---0--|
|---7-----7--7-----7--7-----7--7-----7--|----9-------9-------9-------9-------|
|--5--------5--------5--------5---------|---7-------7-------7-------7--------|
|---------------------------------------|--0-------0-------0-------0---------|
|---------------------------------------|------------------------------------|



 Gtr.I
|------------3------------------3-------|----------3-----------------3-------|
|--------0------0------------0-----0----|-------2-----2-----------2-----2----|
|----0--------------0-----0-----------0-|----2-----------2-----2-----------2-|
|-2--------------------2----------------|-2-----------------2----------------|
|---------------------------------------|------------------------------------|
|---------------------------------------|------------------------------------|
|					|				     |
|Gtr.II                 		|	                             |
|---------------------------------------|------------------------------------|
|---------------------------------------|------------------------------------|
|---------------------------------------|------------------------------------|
|-5---------(5)--------4----------------|------------------------------------|
|-------------------------------5-------|-5/7--------------(7)---------------|
|---------------------------------------|------------------------------------|
|					|			  	     |
|Gtr.III				|			     	     |
|------0--------0--------0--------0-----|-------0-------0-------0-------0----|
|----0---0----0---0----0---0----0---0---|-----0---0---0---0---0---0---0---0--|
|---7-----7--7-----7--7-----7--7-----7--|----9-------9-------9-------9-------|
|--5--------5--------5--------5---------|---7-------7-------7-------7--------|
|---------------------------------------|--0-------0-------0-------0---------|
|---------------------------------------|------------------------------------|



 Gtr.I
|------------2------------------2-------|----------2-----------------2-------|
|--------3------3------------3-----3----|-------0-----0-----------0-----0----|
|----2--------------2-----2-----------2-|----0-----------0-----0-----------0-|
|-0--------------------0----------------|-0-----------------0----------------|
|---------------------------------------|------------------------------------|
|---------------------------------------|------------------------------------|
|					|	 		     	     |
|Gtr.II					|				     |
|---------------------------------------|------------------------------------|
|---------------------------------------|------------------------------------|
|---------------------------------------|------------------------------------|
|-4-5-7------------(7)-------------7/9--|------------------------------------|
|---------------------------------------|-7--------------(7)-----------------|
|---------------------------------------|------------------------------------|
|				 	|				     |
|Gtr.III				|Gtr.IV    			     |
|---------------------------------------|------------------------------------|
|---------------------------------------|--------------10-----10\8-----------|
|-------------------9-\-7---------------|---------9/11----11--11\9-----------|
|----------------9-(9)\-7---------------|------------------------------------|
|--------------0-------(0)--------------|------------------------------------|
|---------------------------------------|------------------------------------|





 Gtr.I
|----------2-----------------2--------|----------2-----------------2-----3--|
|-------3-----3-----------3-----3-----|-------0-----0-----------0-----0-----|
|----2-----------2-----2-----------2--|----0-----------0-----0--------------|
|-0-----------------0-----------------|-0-----------------0-----------------|
|-------------------------------------|-------------------------------------|
|-------------------------------------|-------------------------------------|
|                                     |                                     |
|Gtr.II                               |                                     |
|-------------------------------------|-------------------------------------|
|-------------------------------------|-------------------------------------|
|-------------------------------------|-------------------------------------|
|-4-5-7------------(7)-----------7/9--|---------------------------------7-6-|
|-------------------------------------|-7----------------(7)----------------|
|-------------------------------------|-------------------------------------|
|				      |					    |
|Gtr.III			      |	                  		    |
|-------------------------------------|-------------------------------------|
|-------------------------------------|-------------------------------------|
|-------------------9-\-7-------------|-------------------------------------|
|----------------9-(9)\-7-------------|-------------------------------------|
|--------------0-------(0)------------|-------------------------------------|
|-------------------------------------|-------------------------------------|
|				      |				            |
|Gtr.IV				      |					    |
|-------------------------------------|-------------------------------------|
|---------12\10----10/12\10-----------|----------------10--12---------------|
|-------------------------------------|----------9/11----------11\9---------|
|-------------------------------------|-------------------------------------|
|-------------------------------------|-------------------------------------|
|-------------------------------------|-------------------------------------|




 Gtr.I
|------------3------------------3-------|----------3-----------------3-------|
|--------0------0------------0-----0----|-------2-----2-----------2-----2----|
|----0--------------0-----0-----------0-|----2-----------2-----2-----------2-|
|-2--------------------2----------------|-2-----------------2----------------|
|---------------------------------------|------------------------------------|
|---------------------------------------|------------------------------------|
|					|				     |	     
|Gtr.II                                 |	                             |
|---------------------------------------|------------------------------------|
|---------------------------------------|------------------------------------|
|---------------------------------------|------------------------------------|
|-5---------(5)--------7--------7/9-----|-7----------------(7)-----------7-6-|
|---------------------------------------|------------------------------------|
|---------------------------------------|------------------------------------|
|					|				     |		     
|Gtr.III			 	|			 	     |     
|------0--------0--------0--------0-----|-------0-------0-------0-------0----|
|----0---0----0---0----0---0----0---0---|-----0---0---0---0---0---0---0---0--|
|---7-----7--7-----7--7-----7--7-----7--|----9-------9-------9-------9-------|
|--5--------5--------5--------5---------|---7-------7-------7-------7--------|
|---------------------------------------|--0-------0-------0-------0---------|
|---------------------------------------|------------------------------------|
|					|				     |
|Gtr.IV				   	|				     |
|---------------------------------------|------------------------------------|
|---------------------------------------|------------------------------------|
|---------------------------------------|-------(11)--11--(11)---------------|
|---------------------------------------|------------------------------------|
|---------------------------------------|------------------------------------|
|---------------------------------------|------------------------------------|





 Gtr.I
|------------3------------------3-------|----------3-----------------3-------|
|--------0------0------------0-----0----|-------2-----2-----------2-----2----|
|----0--------------0-----0-----------0-|----2-----------2-----2-----------2-|
|-2--------------------2----------------|-2-----------------2----------------|
|---------------------------------------|------------------------------------|
|---------------------------------------|------------------------------------|
|					|				     |
|Gtr.II                 		|	                             |
|---------------------------------------|------------------------------------|
|---------------------------------------|------------------------------------|
|---------------------------------------|------------------------------------|
|-5---------(5)--------4----------------|------------------------------------|
|-------------------------------5-------|-5/7--------------(7)---------------|
|---------------------------------------|------------------------------------|
|					|				     |
|Gtr.III				|				     |	    
|------0--------0--------0--------0-----|-------0-------0-------0-------0----|
|----0---0----0---0----0---0----0---0---|-----0---0---0---0---0---0---0---0--|
|---7-----7--7-----7--7-----7--7-----7--|----9-------9-------9-------9-------|
|--5--------5--------5--------5---------|---7-------7-------7-------7--------|
|---------------------------------------|--0-------0-------0-------0---------|
|---------------------------------------|------------------------------------|



Gtr.I
|------------3------------------2-------|----------3--------2--------3-------|
|--------3------3------------3-----3----|-------0-----0--------0--------0----|
|----4-------------4------4-----------4-|----0-----------0-----------------0-|
|-5--------------------4----------------|-2-----------------------2----------|
|---------------------------------------|------------------------------------|
|---------------------------------------|------------------------------------|

View Albums that This Song Appears On...

  • Sabbath Bloody Sabbath

    Genre: Pop/Rock Label: Rhino / Warner Bros. Song Duration on Album: 4:08 Album Duration: 42:21

    Release Date: December, 1973

    Moods: Intense, Ominous, Bravado, Street-Smart, Swaggering, Gutsy, Angst-Ridden, Bleak, Complex, Confrontational, Gloomy, Nihilistic, Wintry, Dramatic, Menacing, Confident, Difficult, Fierce

    Styles: Album Rock, British Metal, Heavy Metal

    Themes: Cool & Cocky, Empowering, Freedom

  • Live Evil

    Genre: Pop/Rock Label: Universal Song Duration on Album: 0:43 Album Duration: 01:23:27

    Release Date: December, 1982

    Moods: Confrontational, Crunchy, Dramatic, Gloomy, Intense, Ominous, Angry, Bleak, Malevolent, Menacing, Nihilistic, Rebellious, Visceral

    Styles: Album Rock, British Metal, Heavy Metal, Hard Rock

    Themes: Guys Night Out

  • Complete 70's Replica CD Collection

    Genre: Pop/Rock Label: Castle Music Ltd. Album Duration: 05:30:21

    Release Date: October 22, 2001

    Moods: Angst-Ridden, Bitter, Bleak, Cold, Gloomy, Nihilistic, Ominous, Angry, Dramatic, Eerie, Hostile, Malevolent, Menacing, Messy, Paranoid, Somber, Tense/Anxious, Visceral, Wintry, Brooding, Confrontational, Crunchy, Druggy, Hypnotic, Intense, Meandering, Theatrical, Rebellious, Weary

    Styles: Album Rock, British Metal, Heavy Metal

Close panel

Help Rate This Tab by Voting Up or Down

Vote Up Vote Down
Rating: -0 +0

Other Songs Like This

x

Copyright © 2017