Song: What Is Life Bass

Band: Black Uhuru
Composed By: Derrick Simpson

Rating: -1 +1 Views: 68



    

																				 Title - What is Life
 Artist - Black Uhuru
 Tabbed by - mattydread2@yahoo.com

intro
G|---------------------------------|
D|---6-4----4---6-----6-4----6-4---|
A|-4------7---7-----4------4-----7-|
E|---------------------------------|

G|------------------------------------|
D|---6-4----4---6-----6-4----6-4------|
A|-4------7---7-----4------4-----7--7-|
E|------------------------------------|



    


chorus 11\=slide down
G|----------------------------------------------------------|
D|--2------2---------------4-6--------2---------------6---4-|
A|-4-4----4-4-----11\4-4-7-----4-----4-4-----11\4-4-7---4---|
E|----2-2----2-2-----------------2-2----2-2-----------------|

G|--------------------------------------------------------|
D|--2------2---------------4-6--------2---------------6---|
A|-4-4----4-4-----11\4-4-7-----4-----4-4-----11\4-4-7---4-|
E|----2-2----2-2-----------------2-2----2-2---------------|

verse
G|--------------------4--4---6------------------------------|
D|-------2--2--------6-6---6--------2--2----------------21--|
A|------4-4---4--------------------4-4---4--42---24-42----4-|
E|-2-2-----------4-4------------2-2-----------4-4-----4-----|

G|--------------------4--4----------------------------|
D|-------2--2--------6-6---6--------------------------|
A|------4-4---4-------------------------------6-6-----|
E|-2-2-----------4-4-----------2-2--2420-0---7-7--7-4-|

View Albums that This Song Appears On...

  • Anthem

    Genre: Reggae Label: Universal Music Song Duration on Album: 4:21 Album Duration: 37:54

    Release Date: 1984

    Moods: Laid-Back/Mellow, Smooth, Celebratory, Earnest, Hypnotic, Poignant

    Styles: Reggae-Pop, Roots Reggae, Smooth Reggae, Dub

    Themes: Empowering, Revolutionary

  • Reggae Greats

    Genre: Reggae Label: Island Song Duration on Album: 5:01 Album Duration: 44:36

    Release Date: 1985

    Moods: Bright, Confident, Street-Smart, Cold, Relaxed, Confrontational, Hypnotic, Rousing, Uncompromising, Energetic, Fiery, Intense, Passionate, Rebellious, Urgent, Earnest, Exuberant, Poignant, Reflective, Reverent, Slick, Swaggering, Trippy

    Styles: Roots Reggae, Dub

    Themes: Hanging Out, Summer, Empowering, Freedom

  • The Ultimate Collection

    Genre: Reggae Label: Hip-O / Interscope Song Duration on Album: 5:44 Album Duration: 01:17:46

    Release Date: March 14, 2000

    Moods: Spiritual, Boisterous, Druggy, Spacey, Earnest, Earthy, Hypnotic, Laid-Back/Mellow, Organic, Passionate, Reflective, Reverent, Rousing, Trippy, Poignant

    Styles: Dub, Roots Reggae

    Themes: Empowering

Close panel

Help Rate This Tab by Voting Up or Down

Vote Up Vote Down
Rating: -1 +1

Other Songs Like This

x

Copyright © 2019