Song: Mark Tom And Travis Show

Band: Blink 1000 182

Rating: -0 +0 Views: 24



    

																				1. Dumpweed
2. Don't Leave Me
3. Alien's Exist
4. Family Reunion
5. Going Away To College
6. Whats' My Age Again?
7. Dick Lips
8. Blow Job
9. Untitled
10. Voyeur
11. Pathetic
12. Adam's Song
13. Peggy Sue
14. Wendy Clear
15. Carousel
16. All The Small Things
17. Mutt
18. Country Song
19. Dammit
20. Man Overboard


Dumpweed:



    

INTRO RIFF 1!
e|------------------------------------------------------------------------|
B|------------------------------------------------------------------------|
G|------------------------------------------------------------------------|
D|---6-6h7p6------------6-6h7p6----------6-6h7p6------------6-6h7p6-9-----|
A|---------------9-7----------------9--0-------------9-7--0-----------9---|
E|-0---------7-5------0---------7-5--------------7-5--------------------7-|

INTRO RIFF 2!
e|-4-0---4-0---2-0---2-0---4-0---4-0---5-0---5-0----|
B|-----0-----0-----0-----0-----0-----0-----0-----0--|
G|--------------------------------------------------|
D|--------------------------------------------------|
A|--------------------------------------------------|
E|--------------------------------------------------|

VERSE!
e|------------------------------------------------------------|
B|------------------------------------------------------------|
G|---------444444--------444444--2-22222-444444-222222-444444-|
D|-2-22222-444444-222222-444444--2-22222-444444-222222-444444-|
A|-2-22222-222222-222222-222222--0-00000-222222-000000-222222-|
E|-0-00000--------000000--------------------------------------|

***** ****** ****** ****** ***** ****** ****** ******
CHORUS!
e|----------------------------------------------------------------------|
B|----------------------------------------------------------------------|
G|----------44444444----------44444444----------44444444---------4----4-|
D|-22222222-44444444-77777777-44444444-22222222-44444444-7777777-4----4-|
A|-22222222-22222222-77777777-22222222-22222222-22222222-7777777-2----2-|
E|-00000000----------55555555----------00000000----------5555555--------|

INTERLUDE!
e|-----------------------------------------------------------------------|
B|-----------------------------------------------------------------------|
G|---------44444444----------4444444-2222222-44444444-22222222-44444444--|
D|-2222222-44444444-22222222-4444444-2222222-44444444-22222222-44444444--|
A|-2222222-22222222-22222222-2222222-0000000-22222222-00000000-22222222--|
E|-0000000----------00000000---------------------------------------------|

******* ******** ******** ******* ******* ******** ******** ********
SOLO THINGY!
e|-4-0---0---2-0---0---4-0---0---5-0---0-2--|
B|-----0---0-----0---0-----0---0-----0------|
G|------------------------------------------|
D|------------------------------------------|
A|------------------------------------------|
E|------------------------------------------|

* * * * * * * * * * * * * * * * * * * *
INTRO 1 x1 INTRO 2 x2 VERSE x2 INTRO 1 x1 CHORUS x1 INTRO 2 x2 VERSE x1
INTRO 1 x1 CHORUS x2 INTERLUDE x2 SOLO THINGY x4


Don't leave me

Intro
E|-----------------------------------------------------------|
B|-----------------------------------------------------------|
G|------------xxx7-7-77-----------7-77/9-99------------------|
D|--xxx7-7-77-xxx7-7-77-xxx9-9-99-7-77/9-99------------------|
A|--xxx7-7-77-xxx5-5-55-xxx9-9-99-5-55/7-77------------------|
E|--xxx5-5-55-----------xxx7-7-77----------------------------|

Chorus
E|-----------------------------------------------------------|
B|-----------------------------------------------------------|
G|----------------7-77-7-9-99-9------------------------------|
D|--7-77-7-9-99-9-7-77-7-9-99-9------------------------------|
A|--7-77-7-9-99-9-5-55-5-7-77-7------------------------------|
E|--5-55-5-7-77-7--------------------------------------------|

Verse Riff
E|-----------------------------------------------------------|
B|-----------------------------------------------------------|
G|-----------------------------------------------------------|
D|--7--------------------------------------------------------|
A|--5--------------------------------------------------------|
E|--5--------------------------------------------------------|

Solo
E|-----------------------------------------------------------|
B|-----------------------------------------------------------|
G|-----------------------------------------------------------|
D|--7-----------7-7-7-7-7-7-7-7-7-7-7-7-7-7-7-7--------------|
A|---------------0-0-0-0-0-0-0-0-0-0-0-0-0-0-0-0-------------|
E|-----------------------------------------------------------|
Intro x2
Verse riff
Chorus x4
Intro x2
Verse riff
Chorus x4
Solo
Chorus x4

Alien's Exist

Intro
E|-----------------------------------------------------------|
B|-----------------------------------------------------------|
G|--444444444444--4------------------------------------------|
D|--444444444444--4------------------------------------------|
A|--222222222222--2------------------------------------------|
E|-----------------------------------------------------------|

Verse riff 1
E|-----------------------------------------------------------|
B|-----------------------------------------------------------|
G|--44444444-------------------------------------------------|
D|--44444444-44444444-66666666-22222222----------------------|
A|--22222222-44444444-66666666-22222222----------------------|
E|-----------22222222-44444444-00000000----------------------| PM

Verse riff 2

E|-----------------------------------------------------------|
B|-----------------------------------------------------------|
G|--44444444-66666666----------------------------------------|
D|--44444444-66666666-66666666-22222222----------------------|
A|--22222222-44444444-66666666-22222222----------------------|
E|--------------------44444444-00000000----------------------| PM
Verse riff 3

E|-----------------------------------------------------------|
B|-----------------------------------------------------------|
G|--44444444-------------------------------------------------|
D|--44444444-22222222-66666666-22222222----------------------|
A|--22222222-22222222-66666666-22222222----------------------|
E|-----------00000000-44444444-00000000----------------------| PM

Chorus

E|---------------------------------------------------------------------|
B|---------------------------------------------------------------------|
G|--4--4444-----------4--4444------------------------------------------|
D|--4--4444--4--4444--4--4444--4--4444-------------------9---9---9---9-|
A|--2--2222--4--4444--2--2222--4--4444---6---6---6---6--7-7-7-7-7-7-7-7|
E|-----------2--2222-----------2--2222--4-4-4-4-4-4-4-4----------------| PM

E|-----------------------------------------------------------|
B|-----------------------------------------------------------|
G|--------4----------4---------------------------------------|
D|--4--2--4----4--2--4---------------------------------------|
A|--4--2--2----4--2--2---------------------------------------|
E|--2--0-------2--0------------------------------------------|

Bridge

E|-----------------------------------------------------------|
B|-----------------------------------------------------------|
G|--4-4-4-4-4-4-4-4-4-4-4-4-4-4-4-4-4-4-4-4-4-4-4-4-4-4------|
D|--x-x-x-x-x-x-x-x-x-x-x-x-x-x-x-x-x-x-x-x-x-x-x-x-x-x------|
A|--2-2-2-2-2-2-2-2-2-2-2-2-2-2-2-2-2-2-2-2-2-2-2-2-2-2------|
E|-----------------------------------------------------------|


E|-----------------------------------------------------------------|
B|-----------------------------------------------------------------|
G|--8-8-8-8-8-8-8-8-6-6-6-6-6-6-6-6-9-9-9-9-9-9-9-9-8-8-8-8-8-8-8-8|
D|--x-x-x-x-x-x-x-x-x-x-x-x-x-x-x-x-x-x-x-x-x-x-x-x-x-x-x-x-x-x-x-x|
A|--6-6-6-6-6-6-6-6-4-4-4-4-4-4-4-4-7-7-7-7-7-7-7-7-6-6-6-6-6-6-6-6|
E|-----------------------------------------------------------------|

After Bridge
E|-----------------------------------------------------------|
B|-----------------------------------------------------------|
G|--------------------------------44444444-------------------|
D|--66666666--44444444--22222222--44444444-------------------|
A|--66666666--44444444--22222222--22222222-------------------|
E|--44444444--22222222--00000000-----------------------------|

Intro (bass plays first verse by itself)
Pickslide Verse riff 1 (unmuted)
Verse riff 1 x2
Verse riff 2 x1
Verse riff 3 x1
Chorus Verse riff 1 (unmuted)
Verse riff 1 x2
Verse riff 2 x1
Verse riff 3 x1
Chorus Bridge After Bridge x2
Chorus


Family Reunion

------|
------|
--3---|
--3---| (Let It Ring)
--1---|
------|

Part A (palm mute)
---------------------------------------------|
---------------------------------------------|
---22222222-44444444-66666666-77777777-------|
---22222222-44444444-66666666-77777777-------|
---00000000-22222222-44444444-55555555-------|
---------------------------------------------| pm
Part B
---------------------------------------------|
---------------------------------------------|
---222-2----444-2---666-2---777-2------------|
---222---2--444---2-666---2-777---2----------|
---000------222-----444-----555--------------|
---------------------------------------------|
pm ... ... ... ...

Outro

---------------------------------------------|
---------------------------------------------|
---22222222-44444444-66666666-77777777-7-7---|
---22222222-44444444-66666666-77777777-7-7---|
---00000000-22222222-44444444-55555555-5-5---|
---------------------------------------------|


Going away to college

intro
E--------------------------I   E--------------------------|
B--------------------------I   B--------------------------|
G----6-6-6-6-6-------------I   G--6-6-6-6-6-4-4-4-4-4-----|
D----7-7-7-7-7---9-9-9-9-9

Close panel

Help Rate This Tab by Voting Up or Down

Vote Up Vote Down
Rating: -0 +0

Other Songs Like This

x

Copyright © 2017