Song: Once And Future King Bass

Band: Bloc Party

Rating: -0 +0 Views: 92



    

																				Intro
G|---------------777-------------------------------------777---------------|
D|--------77--66----------------------------------77-66--------------------|
A|99--77-------------99--77--99--77------99--77--------------99--77--99--77|
E|-----------------------------------999-----------------------------------|

Verse
G|---------------777-------------------------------------777---------------|
D|--------77--66----------------------------------77-66--------------------|
A|99--77-------------99--77--99--77------99--77--------------99--77--99--77|
E|-----------------------------------999-----------------------------------|

Pre-Chorus
G|--------99997777-------------------------99997777----------------|
D|--667777----------667777-----------667777----------667777--------|
A|99--------------99------99997777-99--------------99------99997777|
E|-----------------------------------------------------------------|



    

Chorus
G|------------------------------|
D|------------------------------|
A|9\---9\----9\-0000000022222222|
E|--222--222--------------------|X3

G|--------------------------------|
D|--------------------------------|
A|44444444444444445555555577777777|
E|--------------------------------|X1

Verse

Pre-Chorus 2
G|---------------------------------------------------------------|
D|--667766--77------667766--7799-----667766--77----667766--7799--|
A|99------99--775599------99----77-99------99--775599----99----77|
E|---------------------------------------------------------------|

Chorus

Break
G|--------------------------------|
D|--------------------------------|
A|99999999999999999999999997777777|
E|--------------------------------|

G|-----------777----------------|
D|------77-66-------------------|
A|99-77----------99-77-99-77----|
E|---------------------------999|X4 After fourth time slide down from 9th on A. After 
bass stops for a bit, then comes back in with

Outro
G|----------------|
D|--667777--------|
A|99------77775555|
E|----------------|X4

G|-----------------------------------------------------------------------|
D|-----------------------------------------------------------------------|
A|9999999999999944555555552222222244--------------55555555222222229~-----|
E|----------------------------------22222222222222-----------------------|
Thats all. This song is excellent, and its a shame it didn't end up on A Weekend In The 
its definitly good enough.

Close panel

Help Rate This Tab by Voting Up or Down

Vote Up Vote Down
Rating: -0 +0

Other Songs Like This

x

Copyright © 2017