Song: Dominance And Submission Bass

Band: Blue Oyster Cult

Rating: -1 +1 Views: 155



    

																				Blue Oyster Cult: Dominance And Submission

Tabbed by: Marcus Lycus
e-mail: maclark88@juno.com

   0:06 Riff 1                       Riff 2 6x
G:---------------------------------x------------------x
D:---------------------------------x------------------x
A:-------0-------2-------3-------4-x-------0--------2-x
E:-0h22-2--0h22-2--0h22-2--3h44-4--x-0h22-2---0h22-2--x



    

 0:31 Repeat Riff 1

 0:38 Riff 3 4x     0:50 Riff 4
G:-----------------x------------x
D:-----------------x-66-6-6-6---x
A:-2-0-------------x----------4-x
E:------0h22-2-222-x------------x


0:56 Repeat Riff 1 2x then Riff 2 6x

1:32 Repeat Riff 3 4x then Riff 4 1x


 1:51 Riff 5
G:-----------------2-444----------x
D:--------0-2-44-4----------------x
A:-4----2-------------------4-----x
E:--------------------------------x
   ^                        ^       (^= 8 beats)

2:00 Repeat Riff 1 3x over lead 
     then 16 beats drums only


 2:24 Riff 6 16x   2:50 Riff 7 40x
G:--------------x-------------------x
D:-2h4-4--------x-24444444----------x
A:--------------x-------------------x
E:--------------x-------------------x

3:52 Repeat Riff 3 4x over lead

 4:00 Riff 8
G:-------------------------------x
D:-22-2-2-2-2-2-2-2-2-2-2~~~-----x
A:-------------------------------x
E:---------------------------0-2-x

Close panel

Help Rate This Tab by Voting Up or Down

Vote Up Vote Down
Rating: -1 +1

Other Songs Like This

x

Copyright © 2019