Song: Sowing Season Yeah

Band: Brand New

Rating: -1 +1 Views: 256



    

																				Standard Tuning
Sowing Season (Yeah) by Brand New
Tabbed by Hana.

(Listen to song to get exact order).




    

- Great song. I'm not sure if this is the way it's played on the actual record coming out in November.
I used the "New Album Demo" leak. Enjoy.


Verse/Chorus (**Or you can play E5 (a-7 d-9 g-9-------------------| B5 A5 G5)
e|----------------------------------------------------------------|
b|----------------------------------------------------------------|
g|--------------0-------------------------------------------------|
d|--5-5-5-5-5-5--x-x-x-x-x-x--x-x-x-x-x-x--x-x-x-x-x-x------------|
a|--7-7-7-7-7-7--5-5-5-5-5-5--7-7-7-7-7-7--5-5-5-5-5-5------------|
E|--x-x-x-x-x-x--7-7-7-7-7-7--5-5-5-5-5-5--3-3-3-3-3-3------------|
(Occasionally, you hear an open G during the verse i.e. at 0:14).

At 0:38
e|----10--------------------|
b|-------12---10---12-------|
g|--9-------------------12--|
d|--------------------------|
a|--------------------------|
E|--------------------------|

Chorus riff
e|--------------------------------------------------------------|
b|------------------------------------------12-10---------------|
g|---7

Close panel

Help Rate This Tab by Voting Up or Down

Vote Up Vote Down
Rating: -1 +1

Other Songs Like This

x

Copyright © 2019