Song: 24 Years

Band: Caliban
Composed By: The Early Years

Rating: -1 +1 Views: 97



    

																				verse:

---------------------------------------------------------|
---------------------------------------------------------|
-------------------------------------3-3-3-3-------------|
--------------------------------7777-3-3-3-3-5-5---------|2times
------------88885555--------5555-----1-1-1-1-5-5-1-1-----|
----00000000--------00000000-----------------5-5-2-2-----|

---------------------------------------------------------|
---------------------------------------------------------|
---------------------------------------------------------|
---------------------------------------------------------|
----11-111-11-1-1-1-11-111-11-1-1-1----------------------|
----22-222-22-2-2-2-22-222-22-2-2-2----------------------|



    

---------------------------------------------------------|
---------------------------------------------------------|
-------------------------------------3-3-3-3-------------|
--------------------------------7777-3-3-3-3-5-5---------|2times
------------88885555--------5555-----1-1-1-1-5-5-1-1-----|
----00000000--------00000000-----------------5-5-2-2-----|

---------------------------------------------------------|
---------------------------------------------------------|
---------------------------------------------------------|
---------------------------------------------------------|
----4-1-0-4-1-0-----------------4-4-4-4-4----------------|
----4-1-0-4-1-0---44-44-4-4444--4-4-4-4-4----------------|

bridge1:

---------------------------------------------------------|
---------------------------------------------------------|
---------------------------------------------------------|
---------------------------------------------------------|
----00-00-0-0000-000000-00-00-0-0000-0-0-0-0-00000000----|2times
----00-00-0-0000-000000-00-00-0-0000-0-0-0-0-00000000----|

---------------------------------------------------------|
---------------------------------------------------------|
---------------------------------------------------------|
---------------------------------------------------------|
----55-55-5-5555-555555-55-55-5-5555-5-5-5-5-44444444----|2times
----55-55-5-5555-555555-55-55-5-5555-5-5-5-5-44444444----|

chorus:

guitar1:

--------------------------------------------------------------|
--------------------------------------------------------------|
--------------------------------------------------------------|
--------------------------------------------------------------|
----5------5------5------5------5------5------3------3--------|4times
------0-0-0--0-0-0--0-0-0--0-0-0--7-7-7--7-7-7--5-5-5--5-5-5--|

guitar2

--------------------------------------------------------------|
----1515151515151515151515151515151515151515151515151515------|whole chorus
--------------------------------------------------------------|
--------------------------------------------------------------|
--------------------------------------------------------------|
--------------------------------------------------------------|

both guitars:

--------------------------------------------------------------|
--------------------------------------------------------------|
--------------------------------------------------------------|
--------------------------------------------------------------|
----5~-------5~-------4~-------4~-----------------------------|
----5~-55-55-5~-55-55-4~-44-44-4~-----------------------------|

---------------------------------------------------------|
---------------------------------------------------------|
---------------------------------------------------------|
---------------------------------------------------------|
----11-111-11-1-1-1-11-111-11-1-1-1----------------------|
----22-222-22-2-2-2-22-222-22-2-2-2----------------------|

verse2:

---------------------------------------------------------|
---------------------------------------------------------|
-------------------------------------3-3-3-3-------------|
--------------------------------7777-3-3-3-3-5-5---------|2times
------------88885555--------5555-----1-1-1-1-5-5-1-1-----|
----00000000--------00000000-----------------5-5-2-2-----|

bridge2:

----------------------------------------------------------|
----------------------------------------------------------|
----------------------------------------------------------|
----0~---------------00-00-00-00-(55-55-88-88-77-77-77-77-|2times
----0~----////////----------------------------------------|
----0~----////////----------------------------------------|

---------------------------------------------------------|
---------------------------------------------------------|
---------------------------------------------------------|
-----------------------------------------8p5-5h7-3h5p3h5-|
----00-00-------00-00-000000-00-00-----------------------|2times
----00-00-00-00-00-00-000000-00-00-00-00-----------------|

chorus:

--------------------------------------------------------------|
--------------------------------------------------------------|
--------------------------------------------------------------|
--------------------------------------------------------------|
----5------5------5------5------5------5------3------3--------|4times
------0-0-0--0-0-0--0-0-0--0-0-0--7-7-7--7-7-7--5-5-5--5-5-5--|

guitar2

--------------------------------------------------------------|
----1515151515151515151515151515151515151515151515151515------|whole chorus
--------------------------------------------------------------|
--------------------------------------------------------------|
--------------------------------------------------------------|
--------------------------------------------------------------|

bridge1:

---------------------------------------------------------|
---------------------------------------------------------|
---------------------------------------------------------|
---------------------------------------------------------|
----00-00-0-0000-000000-00-00-0-0000-0-0-0-0-00000000----|2times
----00-00-0-0000-000000-00-00-0-0000-0-0-0-0-00000000----|

---------------------------------------------------------|
---------------------------------------------------------|
---------------------------------------------------------|
---------------------------------------------------------|
----55-55-5-5555-555555-55-55-5-5555-5-5-5-5-44444444----|2times
----55-55-5-5555-555555-55-55-5-5555-5-5-5-5-44444444----|

---------------------------------------------------------|
---------------------------------------------------------|
---------------------------------------------------------|
---------------------------------------------------------|
----5~~~-------------------------------------------------|
----5~~~-------------------------------------------------|

END

PLEASE VOTE

View Albums that This Song Appears On...

  • Say Hello to Tragedy

    Label: Century Media Song Duration on Album: 3:48

    Release Date: August 25, 2009

    Styles: Heavy Metal

Close panel

Help Rate This Tab by Voting Up or Down

Vote Up Vote Down
Rating: -1 +1

Other Songs Like This

x

Copyright © 2019